Oops, an error
Loading. Please wait.

Toda La Noche Tab

53 views 1 this week
no commentswrite comment
1 2 3 4 5
3 more votes to show rating
add to favorites
launch autoscroll
font size
0
reset
how to read this tab
guitar tuner
Autoscroll
slow
fast
+/-
esc
set tempo
stop
Help us to improve Ultimate-Guitar.com Take our survey!
×
SE REPITE 2 VECES ESTO.

E|-----------1-1-------1-3-1-|-------5-5-3-3-----------|
B|--------3-3----3--3-3----1-|-6-6-6--------6--3-4-6-3-|
G|---3-3-3--------3----------|----------------5--------|
D|--3------------------------|-------------------------|
A|---------------------------|-------------------------|
E|---------------------------|-------------------------|

Y DESPUES ESTO

E|-----6-6-5--------------------5-5-3-3-------------|
B|-6-6-8-8-6--4-4-8-8-6-----3-3-6-6-4-4-4-------3---|
G|-7-7--------5-5-8-8-7--3-3------------5--2-3-5-3--|
D|--------------------------------------------------|
A|--------------------------------------------------|
E|--------------------------------------------------|


        Em
//Cuando veo las cadenas que son rotas de mis pies


Cuando veo su poder que el me da para vencer

          D
Puedo cantar, cantar, cantar, cantar

         Em
Toda la noche, toda la noche//


      Em
//La celda se abrio cuando la tierra tembló


A LA media noche MI canto triunfo

          D
Puedo cantar, cantar, cantar, cantar

         Em
Toda la noche, toda la noche//
Suggest correction
Give kudos to tab author, rate the tab!
1 2 3 4 5
comments
print report bad tab
guest
You may want to rate the tab now too:
select rating
Wanna post a correction for this tab? Suggest correction