Oops, an error
Loading. Please wait.

Yo Soy Libre Tab

35 views 1 this week
no commentswrite comment
1 2 3 4 5
3 more votes to show rating
add to favorites
launch autoscroll
font size
0
reset
how to read this tab
guitar tuner
Autoscroll
slow
fast
+/-
esc
set tempo
stop
Help us to improve Ultimate-Guitar.com Take our survey!
×
 Al principio es  calmado luego
ya das el rekinto es
el que haces en el piano
aslo  y se oie padre suerte pues....


 G        Em
libre yo soy libre
         C
las cadenas del pecado
         D
han sido rotas
   G           Em
libre yo soy libre
      C
para cantar,
     D
para danzar,
     G
para gozar.


|-7-7-7--------7-7-7-7-5-3-3-3-7-5-5/---
|-------8-10-8--------------------------
|---------------------------------------
|---------------------------------------
|---------------------------------------
|---------------------------------------

|-7-7-7--------7-7-7-7-5-3-3-3-7-5-5-3-7-5-3-5-3----
|-------8-10-8--------------------------------------
|---------------------------------------------------
|---------------------------------------------------
|---------------------------------------------------
|---------------------------------------------------


   G        Em
libre yo soy libre
         C
las cadenas del pecado
         D
han sido rotas
   G           Em
libre yo soy libre
      C
para cantar,
     D
para danzar,
     G
para gozar.


    /CORO/

      Em           D
//he vencido al enemigo
          C         D
por la sangre de jesucristo
        G
yo soy libre//


Saludos A los De Principe de paz Lo de Aca De
Gomez Palacio

Eduardo Alba
Suggest correction
Give kudos to tab author, rate the tab!
1 2 3 4 5
comments
print report bad tab
guest
You may want to rate the tab now too:
select rating
Wanna post a correction for this tab? Suggest correction