Oops, an error
Loading. Please wait.

Theres Nothing Like It bass

by insted
73 views 1 this week
no commentswrite comment
1 2 3 4 5
2 more votes to show rating
add to favorites
×
Save as Personal and add changes to this tab that will be seen only by you. Learn more ›
×
You can save this tab as Personal to edit and correct it or add notes. All changes will be seen only by you. Learn more »
launch autoscroll
font size
0
reset
guitar tuner
edit
Autoscroll
slow
fast
+/-
esc
set tempo
stop
Author
Difficulty
Song: There's Nothing Like It
Artist: Insted
Album: We'll Make The Difference
Genre: Hardcore
Year: 1989

Hey guys! This is the bass of the song. I made by ear, and to me it sounds really well, but I've got
just one doubt about the chorus. For any question or correction, post a comment.
Anyway, enjoy the Insted!

Verse:

G:------------------------------------
D:--------------------3--2------------
A:---5-5555555-555555-------3-33333---
E:------------------------------------

Chorus:

G:-----------------------------------------   ----------------------------------
D:-----------------------------------------   ----------------------------------
A:-----------------------------------------   ----------------------------------
E:---00000000-33333333-55555555-77777777---x1 ---00000000-33333333-55555555-7---x1

G:-----------------------------------------
D:-----------------------------------------
A:-----------------------------------------
E:---00000000-33333333-55555555-77777777---x2

Post-Chorus:

G:------------------------------
D:------------------------------
A:---7-7777777-777777-5--3--5---
E:------------------------------

End:

G:--------   -------------------   ------------------   --------
D:--------   -------------------   ------------------   --------
A:---7~---   ---333-555555-7~---   ---333-55555------   --------
E:--------x1 -------------------x3 -------------0~---x1 ---0~---x1

G:-----------------------------------------------   ------------------------------------------------
D:-----------------------------------------------   ------------------------------------------------
A:---77777777-888-777-5-3-55555555-----555-3-5---   ---77777777-888-777-5-3-55555555-----555-3-5~---
E:---------------------------------555-----------x3 ---------------------------------555------------x1

G:-------------------   ------------------  
D:-------------------   ------------------
A:---333-555555-7~---   ---333-55555------  
E:-------------------x3 -------------0~---x1 

The order is:
.Verse x4 (Guitar play it first 2 times)
.Chorus x1
.Post-Chorus x2
.Verse x4
.Chrus x1
.Post-Chorus x4
.End x1






Tab by: mdc_ivan




            
            
Suggest correction
Creating personal tab
Creating personal tab
You can edit any tab online and save it as your Personal.

You can edit, replace or remove any tab part or add personal notes – all changes will be seen only by you.

Personal tabs can be accessed anytime from any device, even offline.
Learn more »
Give kudos to tab author, rate the tab!
1 2 3 4 5
comments
print report bad tab
guest
You may want to rate the tab now too:
select rating
Wanna post a correction for this tab? Suggest correction