Oops, an error
Loading. Please wait.

Ambulances tab

1,067 views 1 this week
3 commentsread comments
1 2 3 4 5
x 3
add to favorites
×
Save as Personal and add changes to this tab that will be seen only by you. Learn more ›
×
You can save this tab as Personal to edit and correct it or add notes. All changes will be seen only by you. Learn more »
launch autoscroll
font size
0
reset
how to read this tab
guitar tuner
edit
Autoscroll
slow
fast
+/-
esc
set tempo
stop
Author
Difficulty
Artist: Institute
song: Ambulances
album: distort yourself
tab by: mr_munners@hotmail.com

this is the whole song in order...
Intro
 guitar 1
|-13-11-13-11-13-11---9-8-9-8-9-8--|
|----------------------------------|
|----------------------------------|
|----------------------------------|
|----------------------------------|
|----------------------------------|
|guitar 2
|-----------------------------------|
|-----------------------------------|
|9---9---9---9---9---9--9--9--9--9--|
|-10--10--10--10--10--9--9--9--9--9-|
|-----------------------------------|
|-----------------------------------|

verse
 guitar 1
|---------------------------------|
|---------------------------------|
|---------------------------------|
|-9~--------7~--------------------|
|--------------------10~-------9~-|
|---------------------------------|
|guitar 2
|---------------------------------|
|---------------------------------|
|---------------------------------|
|---------------------------------|
|---------------------------------|
|---------------------------------|

Chorus
 guitar 1
|---------------------------------|
|---------------------------------|
|---------------------------------|
|-9~--------(7)~-----9~------(7)~-|
|---------------------------------|
|---------------------------------|
|guitar 2
|---------------------------------|
|---------------------------------|
|---------------------------------|
|-10~----------------9~-----------|
|-10~----------------9~-----------|
|-8~-----------------7~-----------|

 pre verse
guitar 1
|-13-11-13-11-13-11---9-8-9-8-9-8--|
|----------------------------------|
|----------------------------------|
|----------------------------------|
|----------------------------------|
|----------------------------------|
|guitar 2
|-----------------------------------|
|-----------------------------------|
|9---9---9---9---9---9--9--9--9--9--|
|-10--10--10--10--10--9--9--9--9--9-|
|-----------------------------------|
|-----------------------------------|

verse
 guitar 1
|---------------------------------|
|---------------------------------|
|---------------------------------|
|-9~--------7~--------------------|
|--------------------10~-------9~-|
|---------------------------------|
|guitar 2
|---------------------------------|
|---------------------------------|
|---------------------------------|
|---------------------------------|
|---------------------------------|
|---------------------------------|


Chorus
 guitar 1
|---------------------------------|
|---------------------------------|
|---------------------------------|
|-9~--------(7)~-----9~------(7)~-|
|---------------------------------|
|---------------------------------|
|guitar 2
|---------------------------------|
|---------------------------------|
|---------------------------------|
|-10~----------------9~-----------|
|-10~----------------9~-----------|
|-8~-----------------7~-----------|

3rd verse
guitar 1
|---------------------------------|
|---------------------------------|
|---------------------------------|
|-6-6-6-6-6-6--5-5--3-3-3-3-------|
|-4-4-4-4-4-4--3-3--1-1-1-1-------|
|---------------------------------|
|guitar 2
|---------------------------------|
|---------------------------------|
|---------------------------------|
|-111111111111-1010-8-8-8-8-------|
|-111111111111-1010-8-8-8-8-------|
|-9-9-9-9-9-9--8-8--6-6-6-6-------|

 interlude
 guitar 1
|-13-11--13/11-13/11--13-11--13/11-13/11-|
|----------------------------------------|
|----------------------------------------|
|----------------------------------------|
|----------------------------------------|
|----------------------------------------|
|guitar 2
|----------------------------------------|
|----------------------------------------|
|----------------------------------------|
|----------------------------------------|
|----------------------------------------|
|----------------------------------------|

final chorus/outro
 guitar 1
|-13-11-13-11-13-11---9-8-9-8-9-8--|
|----------------------------------|
|----------------------------------|
|----------------------------------|
|----------------------------------|
|----------------------------------|
|guitar 2
|----------------------------------|
|----------------------------------|
|----------------------------------|
|-10~----------------9~------------|
|-10~----------------9~------------|
|-8~-----------------7~------------|
Suggest correction
Creating personal tab
Creating personal tab
You can edit any tab online and save it as your Personal.

You can edit, replace or remove any tab part or add personal notes – all changes will be seen only by you.

Personal tabs can be accessed anytime from any device, even offline.
Learn more »
Give kudos to tab author, rate the tab!
1 2 3 4 5
comments
print report bad tab
3 comments total.
0 reply
phlikone 841 Jan 11, 2006 11:01 AM

Finally, I was listening to the acoustic version so I'll try to tab that version out if anyone's actually heard it. It's amazing.

+1 reply
phlikone 841 Jan 11, 2006 02:39 PM

Good tab, but I think you should try this for the intro.

e|-12-10-12-10-12-10-/-8-7-8-7-8-7--|
b|----------------------------------|
g|----------------------------------|
d|----------------------------------|
a|----------------------------------|
E|----------------------------------|

+1 reply
Remmy 10 Apr 12, 2008 02:05 AM

YEP 12 10 AND 8 7 sounds perfect unless your guitar is out

guest
You may want to rate the tab now too:
select rating
Wanna post a correction for this tab? Suggest correction