Oops, an error
Loading. Please wait.

Fighting The Storm Tab

44 views 1 this week
no commentswrite comment
1 2 3 4 5
3 more votes to show rating
add to favorites
launch autoscroll
font size
0
reset
how to read this tab
guitar tuner
Autoscroll
slow
fast
+/-
esc
set tempo
stop
Help us to improve Ultimate-Guitar.com Take our survey!
×
Author
Difficulty
Tuning
intermediate
C# G# C# F# A# D#
|-------------------------------------------------|
|-------------------------------------------------|
|-------------------------------------------------|
|-3------5----------------------------------------|X2
|-1------3--0-------------------------------------|
|-----------0---00-22-32-0------------------------|



|-------------------------------------------------------------------------------|
|-------------------------------------------------------------------------------|
|-------------------------------------------------------------------------------|
|-3-3-3-3-3-3-5-5-5-5-5-5-------------------------------------------------------|X2
|-1-1-1-1-1-1-3-3-3-3-3-3-------------------0-0-0--------00-22-32-0-------------|
|---.---.-.-.---.---.--.-.------------------0-0-0--0000--00-22-32-0-------------|
Hard to tell which are muted -.- You can figure it out.


|-------------------------------------------------|
|-------------------------------------------------|
|-------------------------------------------------|
|-3~------5-~-------------------------------------|X2
|-1~------3~---0-~--------------------------------|
|--------------0~---------------------------------|


Then do 12/0

Verse:
|-------------------------------------------------|
|-------------------------------------------------|
|-------------------------------------------------|
|-----------3-5-----------------------------------|X3
|-0---3--5--1-3-----------------------------------|Play as many times needed(chords)
|-0---3--5----------------------------------------|


After that,palm mute those same chords

Pre-Chorus
|----------------------------------|
|----------------------------------|
|----------------------------------|
|----------------------------------|X3
|-0--------------------------------|Play it in this style.Do it for every chord.
|-0-0-0-0-0-0-0-0-0-0-0-0-0-0-0-0--|
    . . . . . . .   . . . . . . .

Chorus-Basically Held out chords from the verse. Twice

Post Chorus:
|-------------------------------------------------------------|
|-------------------------------------------------------------|
|-------------------------------------------------------------|
|-3-3-3-3-3-5-5-5-5-5-----------------------------------------|X4
|-1-1-1-1-1-3-3-3-3-3--0-0-0-0-0-0-0--------------------------|Play as many times needed(chords)
|----------------------0-0-0-0-0-0-0--hold-0-out-on-4th-time--|

Repeat Verse,but play it 2 times
Repeat Pre-Chorus,but play it 2 times
Repeat Chorus, play it the same
Repeat Post-Chorus,Play the same
Repeat Intro,and end on 0 and hold it out.
Suggest correction
Give kudos to tab author, rate the tab!
1 2 3 4 5
comments
print report bad tab
guest
You may want to rate the tab now too:
select rating
Wanna post a correction for this tab? Suggest correction