Oops, an error
Loading. Please wait.

Micha Those Who Fear Tomorrow Tab

3,452 views 1 this week
no commentswrite comment
1 2 3 4 5
1 last vote to show rating
add to favorites
launch autoscroll
font size
0
reset
how to read this tab
guitar tuner
Autoscroll
slow
fast
+/-
esc
set tempo
stop
Help us to improve Ultimate-Guitar.com Take our survey!
×
Author
-------------------------------------------------------------------------------
                  Micha: Those who fear tomorrow - Integrity
-------------------------------------------------------------------------------
Tabbed by: Jimmy
Email: jammasterjimbo1@sbcglobal.net

Tuning: Drop D

Im not going to put in where to palm mute but it is pretty easy to hear in the song so 
and the pick slides


Part 1: After Bass intro. (let ring)

e|---------------------------------------------------------------------------|
B|---------------------------------------------------------------------------|
G|---------------------------------------------------------------------------|
D|---------------------------------------------------------------------------|
A|---2-----------------------------------------------------------------------|
E|---2-----------------------------------------------------------------------|

Part: 2 (play 4 times)

e|---------------------------------------------------------------------------|
B|---------------------------------------------------------------------------|
G|---------------------------------------------------------------------------|
D|---------------------------------------------------------------------------|
A|--222----444--555--444----555---777----------------------------------------|
E|--222----444--555--444----555---777----------------------------------------|

Part 3:(play twice)

e|---------------------------------------------------------------------------|
B|---------------------------------------------------------------------------|
G|---------------------------------------------------------------------------|
D|---------------------------------------------------------------------------|
A|-3p2-2222-3p2-22222222-3p2-2222-3p2-22225555-3p2-2222-3p2-22222222---------|
E|-3p2-2222-3p2-22222222-3p2-2222-3p2-22225555-3p2-2222-3p2-22222222---------|

e|---------------------------------------------------------------------------|
B|---------------------------------------------------------------------------|
G|---------------------------------------------------------------------------|
D|---------------------------------------------------------------------------|
A|-3p2-2222-3p2-22227--------------------------------------------------------|
E|-3p2-2222-3p2-22227--------------------------------------------------------|

After playing part 3, play part 2 again, and then part 3 again.

Part 4:(let ring)

e|---------------------------------------------------------------------------|
B|---------------------------------------------------------------------------|
G|---------------------------------------------------------------------------|
D|---------------------------------------------------------------------------|
A|--2--------3-2-------5-2-------3-2-----2222222222222222--------------------|
E|--2--------3-2-------5-2-------3-2-----2222222222222222--------------------|

Solo: Have fun Jeff haha ( i understand it is not exact, but it's close)

e|---------------------------------------------------------------------------|
B|---------------------------------------------------------------------------|
G|-16-15-13-16-15-13-16-15-13-16-15-13-17-16-14-17-16-14-17-16-14-17-16-14---|
D|---------------------------------------------------------------------------|
A|---------------------------------------------------------------------------|
E|---------------------------------------------------------------------------|

e|---------------------------------------------------------------------------|
B|---------------------------------------------------------------------------|
G|-19-17-15-19-17-15-19-17-15-19-17-15-21-19-17-21-19-17-21-19-17-21---------|
D|---------------------------------------------------------------------------|
A|---------------------------------------------------------------------------|
E|---------------------------------------------------------------------------|

e|-------------------------------------------------------------15------------|
B|---------------------------------------------------------------------------|
G|----------------------------------------------------13-14-16---------------|
D|---------------------------------------------------------------------------|
A|--9/11--11/9--9/8--8/7--7h8-7---3/5--5/6--6/7------------------------------|
E|---------------------------------------------------------------------------|

e|---------------------------------------------------------------------------|
B|---------------------------------------------------------------------------|
G|-------------------------------------------------------------------12-14---|
D|----------------------------------------------------------12-14-15---------|
A|-------------------------------------------------12-14-15------------------|
E|--3-3-2---2-3--3-5--5-7--7-8--8-10------14-16-17---------------------------|

e|---------------16-14-12-16-14-12-16-14-12-16-14-12-16-14-12-16-14-12-16----|
B|-----12-14-15--------------------------------------------------------------|
G|--15-----------------------------------------------------------------------|
D|---------------------------------------------------------------------------|
A|---------------------------------------------------------------------------|
E|---------------------------------------------------------------------------|

e|-14-12-16------------------------------------------------------------------|
B|---------------------------------------------------------------------------|
G|---------------------------------------------------------------------------|
D|---------------------------------------------------------------------------|
A|---------------------------------------------------------------------------|
E|---------------------------------------------------------------------------|

After the solo play part 2 again. and then you're done. you have to stop part 2 early 
right before the line "you motherfuckers!"


| /  slide up
| \  slide down
| h  hammer-on
| p  pull-off
| ~  vibrato
| +  harmonic
| x  Mute note
===============================================================================
Suggest correction
Give kudos to tab author, rate the tab!
1 2 3 4 5
comments
print report bad tab
guest
You may want to rate the tab now too:
select rating
Wanna post a correction for this tab? Suggest correction