Oops, an error
Loading. Please wait.

Beautiful One tab

453 views 1 this week
no commentswrite comment
1 2 3 4 5
2 more votes to show rating
add to favorites
×
Save as Personal and add changes to this tab that will be seen only by you. Learn more ›
×
You can save this tab as Personal to edit and correct it or add notes. All changes will be seen only by you. Learn more »
launch autoscroll
font size
0
reset
how to read this tab
guitar tuner
edit
Autoscroll
slow
fast
+/-
esc
set tempo
stop
Author
Difficulty
Intercept - Beautiful One     http://www.intercepttheband.com/index2.html

Riff 1:

A

e|---------------------------------------------------------------------|
B|---------------------------------------------------------------------|
G|--------9------------------------------------------------------------|
D|---9/11---11/9-7-9-7---7---------------------------------------------|
A|-0-------------------9---9-7h9h7-------------------------------------|
E|---------------------------------9/5---------------------------------|

e|---------------------------------------------------------------------|
B|---------------------------------------------------------------------|
G|--------9------------------------------------------------------------|
D|---9/11---11/9-7-9-7---7---------------------------------------------|
A|-0-------------------9---9-7h9h7-------------------------------------|
E|---------------------------------9/5/7-------------------------------|


Bm

e|---------------------------------------------------------------------|
B|--------------------------------------10/12/10-----------------------|
G|--------9-9-9-7-6h7h6----------9-7-6--9-/11/9------------------------|
D|---9/11-------------------9/11---------------------------------------|
A|---------------------------------------------------------------------|
E|-7----------------------7--------------------------------------------|

Verse:

  A                                 A
There was a woman who was dancing beside the bay, 
  A                               Bm
She wore a tight blue t-shirt and she swayed -- 
  Bm                              Bm        
And the swing of her hips was calling my name.
  A                              A
And I had to keep her so I made her a key
  A                                           Bm
And I made her promise she would only dance for me... 
  Bm                                 Bm
Soft, like a feather on the softest summer breeze. (Riff 1)

  A                           A
Pretty as poison on her very best day, 
  A                                    Bm
She kicked around my world in shades of gray, 
  Bm                                         Bm
And she smoke, and she swore and she stole my heart away... 
  A                             A
And I had to keep her so I made her a key
  A                                            Bm
And I made her promise she would only dance for me... 
  Bm                                      C#m
And we lived this close to perfect harmony... 


Chorus:

    Bm                               A
And I know she treated me bad, but I had fun. (Part of Riff 1)
    C#m                               
And as for days: just so long as I was with her
    Bm                                              A
Gonna wake and know it's gonna be another beautiful one. (Riff 1)


Verse:

   A                                A
State of the Union 'til the day she left me: 
   A                               Bm
I'm always happy and she's always mean. 
   Bm                               Bm
But I was game since the name on the mailbox was me. 
  A                                      A
'Til the day the make-up changed to turn the head of 'him,' 
  A                                         Bm
And the house was emptier than it had ever been... 
    Bm                                               C#m
And I could tell I'd been ruined by the smell of her skin...


Chorus:

    Bm                               A
And I know she treated me bad, but I had fun. (Part of Riff 1)
    C#m                               
And as for days: just so long as I was with her
    Bm                                              A
Gonna wake and know it's gonna be another beautiful one. (Riff 1) x2


Interlude:

Chords: A       D       A       D       C#m     


Chorus:

    Bm                               A
And I know she treated me bad, but I had fun. (Riff 1)
    C#m                               
And as for days: just so long as I was with her
    Bm                                              A
Gonna wake and know it's gonna be another beautiful one. (Riff 1) x2


Then end on A

Tabbed by Biscuit

            
            
Suggest correction
Creating personal tab
Creating personal tab
You can edit any tab online and save it as your Personal.

You can edit, replace or remove any tab part or add personal notes – all changes will be seen only by you.

Personal tabs can be accessed anytime from any device, even offline.
Learn more »
Give kudos to tab author, rate the tab!
1 2 3 4 5
comments
print report bad tab
guest
You may want to rate the tab now too:
select rating
Wanna post a correction for this tab? Suggest correction