Oops, an error
Loading. Please wait.

Gold Tab

version 1
version 1

Whole song

Interactive

19,877 views 9 this week
4 commentsread comments
1 2 3 4 5
accurate
x 6
add to favorites
launch autoscroll
font size
0
reset
how to read this tab
guitar tuner
Tab Pro tools
  • play this tab
  • loop segment
  • change instrument
  • show fretboard
  • metronome
×
Best way to learn
"Gold"
Autoscroll
slow
fast
+/-
esc
set tempo
stop
Contributor
Tuning
E B E G# B E
-------------------------------------------------------------------------------
                             GOLD - Interference
-------------------------------------------------------------------------------
Tabbed by: David Oglethorpe
Email: oglethorpe.1@osu.edu

Tuning: !!!!!!!! OPEN E !!!!!!!!!


So no one has a tab for this so I figured I’d try. I think it’s just about exactly 
You need to play all the other strings open all the time; it’s just less confusing to read 
all the 0’s everywhere.

Some of the strumming patterns are kinda weird so listen to the song to get it right.

Let me know if you have any comments! Enjoy! It’s a great song!

Intro:
e|------------------------------------------------------------------------------|
B|------------------------------------------------------------------------------|
G|--0---1-------3------------------------8---7-----5---3-----8---7-----5---3----|
D|------------------2--2--4--2----0---------------------------------------------|
A|------------------------------------------------------------------------------|
E|------------------------------------------------------------------------------|

e|----------------------------9--7--5----12-11-12------9--7--5----12-11-12-14---|
B|--0-1--3----------------------------------------------------------------------|
G|----------2--2--4--2-----0----------------------------------------------------|
D|------------------------------------------------------------------------------|
A|------------------------------------------------------------------------------|
E|------------------------------------------------------------------------------|

e|-9--7--5----12-11-12------9--7--5----12-11-12-14---------------------------|
B|---------------------------------------------------------------------------|
G|---------------------------------------------------------------------------|
D|---------------------------------------------------------------------------|
A|---------------------------------------------------------------------------|
E|---------------------------------------------------------------------------|


Verse:
e|------------------------------------------------------------------------------|
B|------------------------------------------------------------------------------|
G|--0---1-------3---------------------------------------------------------------|
D|------------------2--2--4--2----0---------------------------------------------|
A|------------------------------------------------------------------------------|
E|------------------------------------------------------------------------------|
And I love her so,  I wouldn’t trade her for gold,
When you’re walking on moonbeams, I was born with a silver spoon

e|-----------------------------------------------------------------------------|
B|-----------------------------------------------------------------------------|
G|-8---7-----5---3-----8---7-----5---3-----------------------------------------|
D|-----------------------------------------------------------------------------|
A|-----------------------------------------------------------------------------|
E|-----------------------------------------------------------------------------|
Hell I’m gonna be me, I’m gonna be free,
Walking on moonbeams, And staring out to sea


e|------------------------------------------------------------------------------|
B|------------------------------------------------------------------------------|
G|--0---1-------3---------------------------------------------------------------|
D|------------------2--2--4--2----0---------------------------------------------|
A|------------------------------------------------------------------------------|
E|------------------------------------------------------------------------------|
And If a door be closed, Then a row of homes start building
And tear your curtains down, For sunlight is like gold

e|-----------------------------------------------------------------------------|
B|-----------------------------------------------------------------------------|
G|-8---7-----5---3-----8---7-----5---3-----------------------------------------|
D|-----------------------------------------------------------------------------|
A|-----------------------------------------------------------------------------|
E|-----------------------------------------------------------------------------|
Hell you better be you, Do what you can do,
Walking on moonbeams, And staring out to sea

e|------------------------------------------------------------------------------|
B|------------------------------------------------------------------------------|
G|--0---1-------3---------------------------------------------------------------|
D|------------------2--2--4--2----0---------------------------------------------|
A|------------------------------------------------------------------------------|
E|------------------------------------------------------------------------------|
Cause if you skin was soil, How long do you think before they’d start digging,
And if your life was gold, How long do you think you’d stay living.

e|-----------------------------------------------------------------------------|
B|-----------------------------------------------------------------------------|
G|----------------------------3------------------------------------------------|
D|--------------------------------2--2--4--2---0-------------------------------| x2
A|-9--7--5-4-5---9--10---------------------------------------------------------|
E|-----------------------------------------------------------------------------|
Hey!
Hey!

e|-9--7--5----12-11-12------9--7--5----12-11-12-14------------------------------|
B|------------------------------------------------------------------------------|
G|------------------------------------------------------------------------------|
D|------------------------------------------------------------------------------| x2
A|------------------------------------------------------------------------------|
E|------------------------------------------------------------------------------|

e|------------------------------------------------------------------------------|
B|-----------------3---5-----------------3---5----------------------------------|
G|------------------------------------------------------------------------------|
D|------------------------------------------------------------------------------| x2
A|------------------------------------------------------------------------------|
E|---3--3--3--0-----------3--3--3--0--------------------------------------------|

e|------------------------------------------------------------------------------|
B|------------------------------------------------------------------------------|
G|--0---1-------3---------------------------------------------------------------|
D|------------------2--2--4--2----0---------------------------------------------|
A|------------------------------------------------------------------------------|
E|------------------------------------------------------------------------------|
And I love her so, I wouldn’t trade her for gold.


==================================================================================

http://www.interference.ie/Home.html
comments
print report bad tab
4 comments total. Showing first comments.
0 reply
aya16 wrote on August 26 2008, 04:08 pm

strumming pattern?? where the hell are the chords?? O_o

0 reply
ohiostatelax wrote on September 2 2008, 10:28 am

its all in open e. so just play all 6 strings with those notes. like 000000 001000 003000 000200 000400 etc.... and just listen to the song for the strumming pattern.

0 reply
capitanostrat wrote on September 20 2008, 07:49 am

try the chords e to a to b to f to gm

I want to post or [tab]
guest
You may want to rate the tab now too:
select rating
Please do not post tabs as comments. Select "correction" instead!