Oops, an error
Loading. Please wait.

Gold Tab

version 2
version 2

Whole song

Interactive

2,924 views 1 this week
no commentswrite comment
1 2 3 4 5
3 more votes to show rating
add to favorites
launch autoscroll
font size
0
reset
how to read this tab
guitar tuner
Autoscroll
slow
fast
+/-
esc
set tempo
stop
Help us to improve Ultimate-Guitar.com Take our survey!
×
Interference - Gold

it's all just open strumming. listen to the song for the strumming pattern and when you 
what.

only a few parts to it; simple song. i'm sure you can figure out what to do to make it 
right.

tuning is just open E with the would be G# tuned down to an E.

e|--------------------------------|
B|--------------------------------|
E|-4--5----7--2--4-2-0------------|
E|-4--5----7--2--4-2-0------------|
B|--------------------------------|
E|--------------------------------|

e|--------------------------------|
B|-5--4--2--0---------------------|
E|--------------------------------|
E|--------------------------------|
B|-5--4--2--0---------------------|
E|--------------------------------|


e|-9-7-0---------12--11--12-------|
B|-------9-7-0--------------------|
E|--------------------------------|
E|--------------------------------|
B|--------------------------------|
E|--------------------------------|


e|-9-7-0---------12--11--12--14---|
B|-------9-7-0--------------------|
E|--------------------------------|
E|--------------------------------|
B|--------------------------------|
E|--------------------------------|


e|--------------------------------|
B|--------------------------------|
E|--------------------------------|
E|--------------------------------|
B|--------------------------------|
E|-3--3--3--0---------------------|
Suggest correction
Give kudos to tab author, rate the tab!
1 2 3 4 5
comments
print report bad tab
guest
You may want to rate the tab now too:
select rating
Wanna post a correction for this tab? Suggest correction