Oops, an error
Loading. Please wait.

Vivid Paradigm Tab

16 views 1 this week
no commentswrite comment
1 2 3 4 5
3 more votes to show rating
add to favorites
launch autoscroll
font size
0
reset
how to read this tab
guitar tuner
Autoscroll
slow
fast
+/-
esc
set tempo
stop
Help us to improve Ultimate-Guitar.com Take our survey!
×
Author
Difficulty
Tuning
intermediate
A E A D F# B
----------------------------------------------------------------------
"Vivid Paradigm" (solo) by Interiors - 3:39 to 4:00 of the song
----------------------------------------------------------------------
tabbed by Michael Coscia of Interiors - michaelanthonycoscia@gmail.com

Performed at 110 bpm

This solo is performed on a 7-string guitar tuned AEaDGBe but it can 
also be played on a standard tuned 6-string guitar as the low A string 
is not used in this solo.


e|--------------------------------19-20---22-20-17-20-19--------------| 
B|-------------------18/20-17----------------------------20--18--17---| 
G|-------------14/17------------------------------------------------16| 
D|-------14h15--------------------------------------------------------| 
a|-12h15--------------------------------------------------------------| 
E|--------------------------------------------------------------------| 
A|--------------------------------------------------------------------|


|---------Tapping section below-----------|
e|--------------------------------------------------------------------| 
B|--------------------------------------------------------------------| 
G|-21-16-17-19-21-17-19-17-16-17-19-17-16---17-------16h17p16---------| 
D|-----------------------------------------------14-----------17-19---| 
a|--------------------------------------------------------------------| 
E|--------------------------------------------------------------------| 
A|--------------------------------------------------------------------|


e|--------------------------------------------------------------------| 
B|-----------13--15—12b--------------13h15-13----------13--15-15b-13--| 
G|-x-x-12h14------------14-----12h14-----------12h14------------------| 
D|--------------------------------------------------------------------| 
a|--------------------------------------------------------------------| 
E|--------------------------------------------------------------------| 
A|--------------------------------------------------------------------|


e|-12h13p12-----------------------------------------------------------| 
B|-----------13h15p13---------13--------------------------------------| 
G|---------------------12h14------------------------------------------| 
D|--------------------------------------------------------------------| 
a|--------------------------------------------------------------------| 
E|--------------------------------------------------------------------| 
A|--------------------------------------------------------------------|


************************************

| x  Dead note
| h  Hammer-on
| p  Pull-off
| b  Bend
| /  Slide up

************************************
Suggest correction
Give kudos to tab author, rate the tab!
1 2 3 4 5
comments
print report bad tab
guest
You may want to rate the tab now too:
select rating
Wanna post a correction for this tab? Suggest correction