Oops, an error
Loading. Please wait.

Vivid Paradigm tab

version 1
version 1

Whole song

226 views 9 this week
no commentswrite comment
1 2 3 4 5
3 more votes to show rating
add to favorites
×
Save as Personal and add changes to this tab that will be seen only by you. Learn more ›
×
You can save this tab as Personal to edit and correct it or add notes. All changes will be seen only by you. Learn more »
launch autoscroll
font size
0
reset
how to read this tab
guitar tuner
edit
Autoscroll
slow
fast
+/-
esc
set tempo
stop
Vivid Paradigm - Interiors
tabbed by: Mike Coscia of Interiors
Performed at 100 bpm.
email: michaelanthonycoscia@gmail.com
Tuning: AEaDGBe

[Intro] 
(repeat 8x)
e|-12-13-12---------------------------------15-13---------------------|
B|----------13-12-15---------------15-12-13---------------------------|
G|-------------------14---------12------------------------------------|
D|----------------------12---14---------------------------------------|
a|-------------------------15-----------------------------------------|
E|--------------------------------------------------------------------|
A|--------------------------------------------------------------------|

[0:45] 
(palm muted)
e|--------------------------------------------------------------------|
B|--------------------------------------------------------------------|
G|--------------------------------------------------------------------|
D|--------------------------------------------------------------------|
a|-0-0-0-0---0---0----------------------------------------------------|
E|-0-0-0-0---0---0----------------------------------------------------|
A|-0-0-0-0---0---0----------------------------------------------------|

e|--------------------------------------------------------------------|
B|--------------------------------------------------------------------|
G|--------------------------------------------------------------------|
D|--------------------------------------------------------------------|
a|-0-0-0-0---0---0---------000-0-000-0-0-0---0---0--------------------|
E|-0-0-0-0---0---0---------000-0-000-0-0-0---0---0--------------------|
A|-0-0-0-0---0---0---------000-0-000-0-0-0---0---0--------------------|

e|--------------------------------------------------------------------|
B|--------------------------------------------------------------------|
G|--------------------------------------------------------------------|
D|--------------------------------------------------------------------|
a|-0-0-0-0---0---0----------------------------------------------------|
E|-0-0-0-0---0---0----------------------------------------------------|
A|-0-0-0-0---0---0----------------------------------------------------|

e|--------------------------------------------------------------------|
B|--------------------------------------------------------------------|
G|--------------------------------------------------------------------|
D|--------------------------------------------------------------------|
a|-0-0-0-0---0---0----------------------------------------------------|
E|-0-0-0-0---0---0----------------------------------------------------|
A|-0-0-0-0---0---0-----------------------0-----0-----0----------------|

e|--------------------------------------------------------------------|
B|--------------------------------------------------------------------|
G|--------------------------------------------------------------------|
D|--------------------------------------------------------------------|
a|-0---0---------0--------0-------------------------------------------|
E|-0---0---------0--------0-------------------------------------------|
A|-0---0---------0--------0-------------------------------------------|

[1:09]
e|--------------------------------------------------------------------|
B|--------------------------------------------------------------------|
G|--------------------------------------------------------------------|
D|-9--9--9--9---------------------------------------------------------|
a|-10-10-10-10--------------------3-3---------------5-5-5-5-----------|
E|-8--8--8--8---------------------7-7---------------3-3-3-3------3-5--|
A|-------------0---0-0-0-0---0-0------0—7b8b7-0--0--3-3-3-3-0--2-----0|

e|--------------------------------------------------------------------|
B|--------------------------------------------------------------------|
G|--------------------------------------------------------------------|
D|--------------------------------------------------------------------|
a|-0---0-0---0-0-0-0-000-0-0----1010101012-12-12-12-------------------|
E|-0---0-0---0-0-0-0-000-0-0----8-8-8-8-10-10-10-10-------------------|
A|-0---0-0---0-0-0-0-000-0-0----8-8-8-8-10-10-10-10-------------------|

e|--------------------------------------------------------------------|
B|--------------------------------------------------------------------|
G|--------------------------------------------------------------------|
D|-------9--9---------------------------------------------------------|
a|-------10-10--------------------3-3---------------5-5-5-5-----------|
E|-------8--8---------------------7-7---------------3-3-3-3------3-5--|
A|-------------0---0-0-0-0---0-0------0—7b8b7-0--0--3-3-3-3-0--2-----0|

e|--------------------------------------------------------------------|
B|--------------------------------------------------------------------|
G|--------------------------------------------------------------------|
D|--------------------------------------------------------------------|
a|-0---0-0---0-0-0-0-000-0-0----1010101012-12-------------------------|
E|-0---0-0---0-0-0-0-000-0-0----8-8-8-8-10-10-------------------------|
A|-0---0-0---0-0-0-0-000-0-0----8-8-8-8-10-10-------------------------|

e|--------------------------------------------------------------------|
B|--------------------------------------------------------------------|
G|--------------------------------------------------------------------|
D|-------------------------------------------------14-14-14-14--------|
a|-------------------------------------------------15-15-15-15--------|
E|-------7--------------------------7-8-7----------13-13-13-13-----7--|
A|-0--3------0---5-5-5-8-8-8-0---10-------10-7-8-0-------------0-8----|

e|--------------------------------------------------------------------|
B|--------------------------------------------------------------------|
G|--------------------------------------------------------------------|
D|--------------------------------------------------------------------|
a|---------------------------8-8-8-8------7-7-7-7----3----------------|
E|-8-7------------8---7-8----5-5-5-5------3-3-3-3----7----------------|
A|-----10-7-8-0-5---5--------5-5-5-5------3-3-3-3---------------------|

[Repeat previous 2 blocks]
e|--------------------------------------------------------------------|
B|--------------------------------------------------------------------|
G|--------------------------------------------------------------------|
D|------------------------------------------------------------------9-|
a|-0--------------------------------0----------------------------10---|
E|-0--------------------------------0--------------------------8------|
A|-0--------------------------------0---------------------------------|

[1:57]
(palm muted)
e|--------------------------------------------------------------------|
B|--------------------------------------------------------------------|
G|--------------------------------------------------------------------|
D|--------------------------------------------------------------------|
a|-0-0-0-0--0---000-0-0-----------000-0-0-0-0----0-0-0-0---0-0--------|
E|-0-0-0-0--0---000-0-0-----------000-0-0-0-0----0-0-0-0---0-0--------|
A|-0-0-0-0--0---000-0-0-----------000-0-0-0-0----0-0-0-0---0-0--------|

e|--------------------------------------------------------------------|
B|--------------------------------------------------------------------|
G|--------------------------------------------------------------------|
D|--------------------------------------------------------------------|
a|-8-8-8-8--8---888-8-8-----------888-8-8-8-8----3-3-3-3---3-3--------|
E|-8-8-8-8--8---888-8-8-----------888-8-8-8-8----3-3-3-3---3-3--------|
A|-8-8-8-8--8---888-8-8-----------888-8-8-8-8----3-3-3-3---3-3--------|

[Repeat previous 2 blocks]

[Following section]
(16th note alt picking)
e|-------------------------------------------------8-8-8-8-8-8-8-8----|
B|-10-10-10-10-10-10-10-10-10-10-10-10-10-10-10-10--------------------|
G|--------------------------------------------------------------------|
D|--------------------------------------------------------------------|
a|--------------------------------------------------------------------|
E|--------------------------------------------------------------------|
A|--------------------------------------------------------------------|

e|--------------------------------------------------------------------|
B|-8-8-8-8-8-8-8-8-----10-10-10-10-10-10-10-10-10-10-10-10-10-10-10-10|
G|--------------------------------------------------------------------|
D|--------------------------------------------------------------------|
a|--------------------------------------------------------------------|
E|--------------------------------------------------------------------|
A|--------------------------------------------------------------------|

e|-8-8-8-8-8-8-8-8---13-13-13-13-12-12-12-12--------------------------|
B|---------------------------------------------10-10-10-10-10-10-10-10|
G|--------------------------------------------------------------------|
D|--------------------------------------------------------------------|
a|--------------------------------------------------------------------|
E|--------------------------------------------------------------------|
A|--------------------------------------------------------------------|

e|--------------------------8-8-8-8-8-8-8-8---------------------------|
B|-10-10-10-10-10-10-10-10------------------8-8-8-8-8-8-8-8-----------|
G|--------------------------------------------------------------------|
D|--------------------------------------------------------------------|
a|--------------------------------------------------------------------|
E|--------------------------------------------------------------------|
A|--------------------------------------------------------------------|

e|--------------------------13-13-13--12-12-12--15-15-15--13-13-13----|
B|-10-10-10-10-10-10-10-10--------------------------------------------|
G|--------------------------------------------------------------------|
D|--------------------------------------------------------------------|
a|--------------------------------------------------------------------|
E|--------------------------------------------------------------------|
A|--------------------------------------------------------------------|

e|--12-12--13-13------------------------------------------------------|
B|--------------------------------------------------------------------|
G|--------------------------------------------------------------------|
D|--------------------------------------------------------------------|
a|--------------------------------------------------------------------|
E|--------------------------------------------------------------------|
A|--------------------------------------------------------------------|

[2:35] 
(follow strumming pattern with these chords, repeat once)
e|--------------------------------------------------------------------|
B|--------------------------------------------------------------------|
G|--------------------------------------------------------------------|
D|--------------------------------------------------------------------|
a|-10----12---0---3---------------------------------------------------|
E|-8-----10---0---3---------------------------------------------------|
A|-8-----10---0---3---------------------------------------------------|

e|--7-8-7-------------------------------------------------------------|
B|---------8-10-8-----8-10-8------------------------------------------|
G|----------------7-9--------7-9-7-------7-9-7------------------------|
D|----------------------------------9-10--------9-10-9----------------|
a|------------------------------------------------------8-10-7b-------|
E|--------------------------------------------------------------------|
A|--------------------------------------------------------------------|

e|--7-8-7-------------------------------------------------------------|
B|---------8-10-8-----8-10-8------------------------------------------|
G|----------------7-9--------7-9-7-------7----4b----------------------|
D|----------------------------------9-10------------------------------|
a|--------------------------------------------------------------------|
E|--------------------------------------------------------------------|
A|--------------------------------------------------------------------|

[Repeat above riff once more]

[3:18] 
(16th note alt picking) repeat once)
e|--------------------------------------------------------------------|
B|--------------------------------------------------------------------|
G|--------------------------------------------------------------------|
D|--------------------------------------------------------------------|
a|--------------------------------------------------------------------|
E|--------------------10----------------------------------------10-13-|
A|--0-10-0-10-13-0-13----0-13-12-0-13-0-13-10-0-10-0-10-13-0-13-------|

e|--------------------------------------------------------------------|
B|--------------------------------------------------------------------|
G|--------------------------------------------------------------------|
D|--------------------------------------------------------------------|
a|-10-12-10-----------------------------------------------------------|
E|----------13-10-----------------------------------------------------|
A|----------------13-10-----------------------------------------------|

[3:28]
(follow breakdown rhythm in song, heavily palm mute)
e|--------------------------------------------------------------------|
B|--------------------------------------------------------------------|
G|--------------------------------------------------------------------|
D|-2------------------------------------------------------------------|
a|-0------------------------------------------------------------------|
E|-0------------------------------------------------------------------|
A|-0------------------------------------------------------------------|

[3:39]
(guitar solo)
e|-----------------------------19-20---22-20-17-20-19-----------------|
B|-------------------18/20-17----------------------------20--18--17---|
G|-------------14/17------------------------------------------------16|
D|-------14h15--------------------------------------------------------|
a|-12h15--------------------------------------------------------------|
E|--------------------------------------------------------------------|
A|--------------------------------------------------------------------|

(Tapping section below)
e|--------------------------------------------------------------------|
B|--------------------------------------------------------------------|
G|-21-16-17-19-21-17-19-17-16-17-19-17-16---17-------16h17p16---------|
D|----------------------------------------------14-------------17-19--|
a|--------------------------------------------------------------------|
E|--------------------------------------------------------------------|
A|--------------------------------------------------------------------|

e|--------------------------------------------------------------------|
B|------------13--15—12b--------------13h15-13----------13--15-15b-13-|
G|- x-x-12h14------------14-----12h14-----------12h14-----------------|
D|--------------------------------------------------------------------|
a|--------------------------------------------------------------------|
E|--------------------------------------------------------------------|
A|--------------------------------------------------------------------|

e|--12h13p12----------------------------------------------------------|
B|------------13h15p13---------13-------------------------------------|
G|----------------------12h14-----------------------------------------|
D|--------------------------------------------------------------------|
a|--------------------------------------------------------------------|
E|--------------------------------------------------------------------|
A|--------------------------------------------------------------------|

************************************

| x   Dead note
| h   Hammer-on
| p   Pull-off
| t   Tapping
| b   Bend
| /   Slide up

************************************
Suggest correction
Creating personal tab
Creating personal tab
You can edit any tab online and save it as your Personal.

You can edit, replace or remove any tab part or add personal notes – all changes will be seen only by you.

Personal tabs can be accessed anytime from any device, even offline.
Learn more »
Give kudos to tab author, rate the tab!
1 2 3 4 5
comments
print report bad tab
guest
You may want to rate the tab now too:
select rating
Wanna post a correction for this tab? Suggest correction