Oops, an error
Loading. Please wait.
47 views 3 this week
no commentswrite comment
1 2 3 4 5
3 more votes to show rating
add to favorites
launch autoscroll
font size
0
reset
guitar tuner
Autoscroll
slow
fast
+/-
esc
set tempo
stop
Help us to improve Ultimate-Guitar.com Take our survey!
×
bueno esta nomas facil
les mande la base de todo
pues saben que aca pueden jugar mucho
Intro
                                   x3
E|-----5-|-------|------|-------|------|--------|
A|--5----|-5---5-|----5-|----5--|-3----|----8---|
D|----7--|----7--|-5----|-5---5-|---5--|---7-7--|
G|-------|---7---|---7--|---7---|----5-|-77-----|

                                   x3
E|-----5-|-------|------|-------|------|-------|-3-5--|
A|--5----|-5---5-|------|----5--|-3----|----8--|------|
D|----7--|----7--|-5--5-|-5---5-|---5--|---7-7-|------|
G|-------|---7---|---7--|---7---|----5-|-77----|------|

Muchas gracias      x2     x2
E|-----5-|-------|------|------|-------|-------|
A|--5----|-5---5-|------|-3----|-8---8-|-7--7--| x4
D|----7--|----7--|-5--5-|---5--|---10--|---7---|
G|-------|---7---|---7--|----5-|-------|-------|

Trompetas                 x2
E|-------|------|------|------|------|-555-555-|--------|
A|--5--5-|---5--|-3----|-5--5-|---5--|---------|----8---|x2
D|----7--|-5--5-|---5--|---7--|-5--5-|---------|---7-7--|
G|-------|------|----5-|------|------|---------|-77-----|

                                   x3
E|-----5-|-------|------|-------|------|--------|
A|--5----|-5---5-|----5-|----5--|-3----|----8---|
D|----7--|----7--|-5----|-5---5-|---5--|---7-7--|
G|-------|---7---|---7--|---7---|----5-|-77-----|

                                   x3
E|-----5-|-------|------|-------|------|-------|-3-5--|
A|--5----|-5---5-|------|----5--|-3----|----8--|------|
D|----7--|----7--|-5--5-|-5---5-|---5--|---7-7-|------|
G|-------|---7---|---7--|---7---|----5-|-77----|------|

por tus hijos       x2     x2
E|-----5-|-------|------|------|-------|-------|
A|--5----|-5---5-|------|-3----|-8---8-|-7--7--| x4
D|----7--|----7--|-5--5-|---5--|---10--|---7---|
G|-------|---7---|---7--|----5-|-------|-------|

Trompetas                 x2
E|-------|------|------|------|------|-555-555-|--------|
A|--5--5-|---5--|-3----|-5--5-|---5--|---------|----8---|x2
D|----7--|-5--5-|---5--|---7--|-5--5-|---------|---7-7--|
G|-------|------|----5-|------|------|---------|-77-----|

E|--3-5--|
A|-------|
D|-------|
G|-------|

Me despido          x2     x2
E|-----5-|-------|------|------|-------|--------|
A|--5----|-5---5-|------|-3----|-8---8-|-7---5--|
D|----7--|----7--|-5--5-|---5--|---10--|---7----|
G|-------|---7---|---7--|----5-|-------|--------|

E|--------|------|-------|------|-----|-----|-------|
A|----5---|---7--|---7-5-|-5--5-|--5--|--7--|--7-5--|
D|------7-|----7-|-------|------|---7-|---7-|-------|
G|--7-----|-9----|-9-----|---7--|-7---|-9---|-9-----|

E|--------|------|-------|------|-----|-----|------|------|
A|----5---|---7--|---7-5-|-5--5-|--5--|--7--|--7-5-|------|
D|------7-|----7-|-------|------|---7-|---7-|------|---7--|
G|--7-----|-9----|-9-----|---7--|-7---|-9---|-9----|-77---|

                                   x3
E|-------|-------|------|-------|------|--------|
A|--5--5-|-5---5-|----5-|----5--|-3----|----8---|
D|----7--|----7--|-5----|-5---5-|---5--|---7-7--|
G|-------|---7---|---7--|---7---|----5-|-77-----|

                                   x3
E|-------|-------|------|-------|------|-------|-3-5--|
A|--5--5-|-5---5-|------|----5--|-3----|----8--|------|
D|----7--|----7--|-5--5-|-5---5-|---5--|---7-7-|------|
G|-------|---7---|---7--|---7---|----5-|-77----|------|

 gatolar
Suggest correction
Give kudos to tab author, rate the tab!
1 2 3 4 5
comments
print report bad tab
guest
You may want to rate the tab now too:
select rating
Wanna post a correction for this tab? Suggest correction