Oops, an error
Loading. Please wait.

Gracias Tab

41 views 1 this week
no commentswrite comment
1 2 3 4 5
3 more votes to show rating
add to favorites
launch autoscroll
font size
0
reset
how to read this tab
guitar tuner
×
Best way to learn
"Gracias"
Autoscroll
slow
fast
+/-
esc
set tempo
stop
2|-------------------------|
3|-------------------------|
4|-7-5-3-5-7-5-3-7-9-7-5-3-|

2|--------------------------|
3|--------------------------|
4|-8-7-5-7-8-7-5-8-10-8-7-5-|

2|------------------------------|
3|------------------------------|
4|-10-8-7-8-10-8-7-10-12-10-8-7-|

2|-------------|
3|-5-5-5-9-9-7-|
4|-------------|(X2)

1|-----|
2|-----|
3|-6-6-|

LA7 REm                 SOLm
muchas gracias te agradesco por
  DO                         FA
haberme amado asi por tanto tiempo
LA7 REm          SOLm        DO
te perdono si te fuiste pues muy
                      FA    LA7
francamente tu a mi me dijiste
REm             SOLm          DO
terminemos no conviene yo te quiero
                       FA    LA7
y se que tu tambien me quieres
  REm          SOLm          DO
tu casado yo soltera y un hogar
                       FA    LA7
hay de por medio que problema

1|---------------|
2|---------------|
3|-2-2-2-5-7-3-3-|

1|---------------|
2|---------------|
3|-5-5-5-9-9-7-7-|

1|---------------|
2|---------------|
3|-2-2-2-5-7-3-3-|

1|-------------------|
2|-------------------|
3|-5-5-5-5-5-5-9-9-7-|     (X2)

2|-------------------------|
3|-------------------------|
4|-7-5-3-5-7-5-3-7-9-7-5-3-|

2|--------------------------|
3|--------------------------|
4|-8-7-5-7-8-7-5-8-10-8-7-5-|

2|------------------------------|
3|------------------------------|
4|-10-8-7-8-10-8-7-10-12-10-8-7-|

2|-------------|
3|-5-5-5-9-9-7-|
4|-------------|(X2)


  REm               SOLm
por tus hijos por tu esposa piensa
DO                        FA    LA7
que mas bien yo soy muy poca cosa
    REm               SOLm
muchas gracias dijo de nuevo por tu
DO                     FA      LA7
familia es mejor que terminemos
     REm            SOLm
yo te quiero por hoy por siempre
     DO                      FA   LA7
pero mejor yo me resigno a perderte
    REm           SOLm
hasta luego buena suerte
      DO
en tu hogar estan tus hijos
       FA     LA7
que te quieren

1|---------------|
2|---------------|
3|-2-2-2-5-7-3-3-|

1|---------------|
2|---------------|
3|-5-5-5-9-9-7-7-|

1|---------------|
2|---------------|
3|-2-2-2-5-7-3-3-|

1|-------------------|
2|-------------------|
3|-5-5-5-5-5-5-9-9-7-|     (X2)

   REm           SOLm
me despido para siempre
           DO
con un te quiero que sera
          FA   LA7  REm
hasta la muerte

1|-------------------1-5-3-|
2|-5-5-5-5-5-5-5-3-3-------|
3|-------------------------|

1|-1-1-1-1-1-1-1-5-1-3-7-5-|
2|-------------------------|
3|-------------------------|(X4)

2|-------------------------|
3|-------------------------|
4|-7-5-3-5-7-5-3-7-9-7-5-3-|

2|--------------------------|
3|--------------------------|
4|-8-7-5-7-8-7-5-8-10-8-7-5-|

2|------------------------------|
3|------------------------------|
4|-10-8-7-8-10-8-7-10-12-10-8-7-|

2|-------------|
3|-5-5-5-9-9-7-|
4|-------------|(X2)
Suggest correction
Give kudos to tab author, rate the tab!
1 2 3 4 5
comments
print report bad tab
guest
You may want to rate the tab now too:
select rating
Wanna post a correction for this tab? Suggest correction