Oops, an error
Loading. Please wait.

5 Get The Girls bass

version 2
version 2

Whole song

Interactive

2,463 views 1 this week
7 commentsread comments
1 2 3 4 5
1 last vote to show rating
add to favorites
×
Save as Personal and add changes to this tab that will be seen only by you. Learn more ›
×
You can save this tab as Personal to edit and correct it or add notes. All changes will be seen only by you. Learn more »
launch autoscroll
font size
0
reset
guitar tuner
backing track
0:00
0:00
edit
Autoscroll
slow
fast
+/-
esc
set tempo
stop
Difficulty
intermediate
----------------------------------------------------------------------------
			     5 (Get the girls) - Interpol
----------------------------------------------------------------------------


The version i did before this was a live version, so the one im about to do now is the cd version.

Tabbed By : Duck Dooo


Tuning: EADG

at the beggining there is just guitars, but you can do something like this with it. You 
do anything with any muted notes basically

                               INTRO

G|--xx-x--xx-x--------------------------------------------------------------|
D|--xx-x--xx-x---(ETC)------------------------------------------------------|
A|--xx-x--xx-x--------------------------------------------------------------|
E|--xx-x--xx-x--------------------------------------------------------------|

      ( these are tens, elevens and fourteens, not ones threes etc)

G|----------88-----88/1111/14\----------88-----88/1111/14\-------------------|
D|--------8----0-88------------0-------8----0-88-------------(X6)------------|
A|-8-1010------------------------1010----------------------------------------|
E|---------------------------------------------------------------------------|

Then it goes

G|-888/1111/14\-------------------------------------------------------------|
D|------------------(X2)----------------------------------------------------|
A|--------------------------------------------------------------------------|
E|--------------------------------------------------------------------------|

now for the verse, (this is the way i do it until the chorus), (the chorus and verse are 
same on bass)

G|---------------------------------------------------------------------------|
D|---------------------------------------------------------------------------|
A|---------------------------------------------------------------------------|
E|-333333333x666x555-333333333x666x555-333333333x666x555---(etc)-------------|

      This is the way it is done by carlos

G|--------------------------------------------------------------------------|
D|---------3333-------------------------------------------------------------|
A|-------------555566666666-3333/6666---(X4)--------------------------------|
E|-33333333-----------------------------------------------------------------|

 now it goes to the pre chorus which you can do either like this (the intro)

G|----------88-----88/1111/14\----------88-----88/1111/14\-------------------|
D|--------8----0-88-----------0--------8----0-88-------------(X5)------------|
A|-8-1010------------------------1010----------------------------------------|
E|---------------------------------------------------------------------------|

or do it like this

G|--------------------------------------------------------------------------|
D|-------11-----11/44/7\----------------------------------------------------|
A|------1---0-11--------0----(X5)-------------------------------------------|
E|-1-33---------------------------------------------------------------------|

Now its the chorus, probably the most coolest ever, (as casrols does it)
it has one of his great little roll-ins to it (thats why you only do X5 of the pre chorus)

G|---------------------------------------------------------------------------|
D|-------------3333----------------------------------------------------------|
A|-----------------555566666666-3333/6666------------------------------------|
E|-01233333333---------------------------------------------------------------|

Or if you really in the mood do this

G|-------------------------------8-8-5-5-8-8--------------------------------|
D|-------------3-3-3-333----------------------------------------------------|
A|----------------------5555h6666-6-3-3-6-6---------------------------------|
E|-33-3333-3333-------------------------------------------------------------|

This is 100% accurate except fot the bits which i suggested my improvisation on it. 
bassing and Interpol are awsome. thank you


| /  slide up
| \  slide down
| h  hammer-on
| p  pull-off
| ~  vibrato
| +  harmonic
| x  Mute note
===============================================================================
Suggest correction
Creating personal tab
Creating personal tab
You can edit any tab online and save it as your Personal.

You can edit, replace or remove any tab part or add personal notes – all changes will be seen only by you.

Personal tabs can be accessed anytime from any device, even offline.
Learn more »
Give kudos to tab author, rate the tab!
1 2 3 4 5
comments
print report bad tab
7 comments total. Showing first comments.
0 reply
Interpolfan3000 31 Oct 16, 2007 08:03 AM

Which song is this?

0 reply
Paul Lambeth 660 Dec 15, 2007 05:19 AM

It's called "5", originally "Get The Girls", off the Fukd#3 EP

0 reply
post-punker 31 Feb 06, 2008 05:52 AM

Great tab but please, please, please...could you make a guitar tab for this song? It's really hard to find and I would be deeply grateful

guest
Wanna post a correction for this tab? Suggest correction