Oops, an error
Loading. Please wait.

All The Rage Back Home intro tab

version 1
version 1

Intro

Whole song

15,034 views 30 this week
9 commentsread comments
1 2 3 4 5
x 6
add to favorites
×
Save as Personal and add changes to this tab that will be seen only by you. Learn more ›
×
You can save this tab as Personal to edit and correct it or add notes. All changes will be seen only by you. Learn more »
launch autoscroll
font size
0
reset
how to read this tab
guitar tuner
edit
Autoscroll
slow
fast
+/-
esc
set tempo
stop
Author
Difficulty
intermediate
Interpol - All The Rage Back Home

Beginning Riff
e|-----12-----12------12-2~12-12------10-----10------10-----10------|
B|-2~13---2~13--13--12----------12--12---2~12--12--12--2~12--12-----|
G|------------------------------------------------------------------|
D|------------------------------------------------------------------|
A|------------------------------------------------------------------|
E|------------------------------------------------------------------|

Riff after beginning has a little extra to it. (done by itzdanielbroski)

e|-----12-----12------12--15(x4)-17(x4)------10--15(x4)17(x4)-------10-------10----|
B|-2~13---2~13--13--12----15(x4)17(x4)--2~12-----15(x4)17(x4)--2~12-----2~12----12-|
G|---------------------------------------------------------------------------------|
D|---------------------------------------------------------------------------------|
A|---------------------------------------------------------------------------------|
E|---------------------------------------------------------------------------------|

ATTENTION: I'LL KEEP EDITING THIS POST, AS IT IS NOT FINISHED AT ALL. FEEL FREE TO HELP
ME OUT IN THE COMMENT SECTION, I WOULD LOVE THIS TAB TO BE MADE BY AS MUCH PEOPLE AS POSSIBLE.

Tremolo picking. (done by itzdanielbroski)
Just listen to the video and you should know when to switch.

e|------------------------------------------------------------------|
B|19~~~~~~~~~~~~~~13~~~~~~~~~~~~~17~~~~~~~~~~~~~12~~~~~~~~~~~~~-----|
G|------------------------------------------------------------------|
D|------------------------------------------------------------------|
A|------------------------------------------------------------------|
E|------------------------------------------------------------------|

Right to the very end of the tremblo picking, it switches it up a bit

e|----------------------------------------------|
B|19~~~~~~~~~~~~~~13~~~~~~~~~~~~~19~~~~~~~~~~~~~|
G|----------------------------------------------|
D|----------------------------------------------|
A|----------------------------------------------|
E|----------------------------------------------|
it ends there and continues of into the riff.

The second time daniel tremolo picks, it adds a bit more to it.

e|------------------------------------------------------------------|
B|19~~~~~~~~~~~~~~13~~~~~~~~~~~~~17~~~~~~~~~~~~~12~~~~~~~~~~~~~-----|
G|------------------------------------------------------------------|
D|------------------------------------------------------------------|
A|------------------------------------------------------------------|
E|------------------------------------------------------------------|

e|------------------------------------------------------------------|
B|19~~~~~~~~~~~~~~13~~~~~~~~~~~~~17~~~~~~~~~~~~~12~~~~~~~~~~~~~-----|
G|------------------------------------------------------------------|
D|------------------------------------------------------------------|
A|------------------------------------------------------------------|
E|------------------------------------------------------------------|

these on the bottom, you will have to play/switch somewhat fast (if that makes any sense)

e|------------------------------------------------------------------|
B|19~~~~~~~~~~~~~~13~~~~~~~~~~~~~19~~~~~~~~~~~~~20~~~~~~~~~~~~~-----|

G|------------------------------------------------------------------|
D|------------------------------------------------------------------|
A|------------------------------------------------------------------|
E|------------------------------------------------------------------|

e|------------------------------------------------------------------|
B|13~~~~~~~~~~~~~~17~~~~~~~~~~~~~15~~~~~~~~~~~~~12~~~~~~~~~~~~~-----|

G|------------------------------------------------------------------|
D|------------------------------------------------------------------|
A|------------------------------------------------------------------|
E|------------------------------------------------------------------|

keep playing these till the end of the video. again, just listen to the song and try to 
aim it when it switches. I hope this helps, thanks (:

            
            
Suggest correction
Creating personal tab
Creating personal tab
You can edit any tab online and save it as your Personal.

You can edit, replace or remove any tab part or add personal notes – all changes will be seen only by you.

Personal tabs can be accessed anytime from any device, even offline.
Learn more »
comments
print report bad tab
9 comments total. Showing first comments.
0 reply
gragil 16 Jul 15, 2014 02:30 PM, edited at 06:31 pm

Great tab. It's surprisingly fiddly to keep sliding up and explains why the early live performances of it were slightly, uh, messy especially when Dan goes further up the fretboard!

0 reply
itzdanielbroski 80 Jul 16, 2014 11:31 AM

e|-----12-----12------12--15(x4)-17(x4)------10--15(x4)17(x4)-------10---|
B|-2~13---2~13--13--12----15(x4)17(x4)--2~12-----15(x4)17(x4)--2~12-----|

e|------10-----|
b|-2~12----12--|

I think Daniel plays this after the little intro

0 reply
itzdanielbroski 80 Jul 17, 2014 10:36 AM

I think i figured out the tremblo picking, just listen to the video and you should know when to switch.

e|-------------------------------------------------------------|
B|19~~~~~~~~~~~~~~13~~~~~~~~~~~~~17~~~~~~~~~~~~~12~~~~~~~~~~~~~|

Right to the very end of the tremblo picking, it switches it up to a bit

e|----------------------------------------------|
B|19~~~~~~~~~~~~~~13~~~~~~~~~~~~~19~~~~~~~~~~~~~|

it ends there and continues of into the riff.

The second time daniel tremblo picks, it adds a bit more too it.

e|-------------------------------------------------------------|
B|19~~~~~~~~~~~~~~13~~~~~~~~~~~~~17~~~~~~~~~~~~~12~~~~~~~~~~~~~|

e|-------------------------------------------------------------|
B|19~~~~~~~~~~~~~~13~~~~~~~~~~~~~17~~~~~~~~~~~~~12~~~~~~~~~~~~~|

these on the bottom, you will have to play/switch somewhat fast (if that makes any sense)

e|-------------------------------------------------------------|
B|19~~~~~~~~~~~~~~13~~~~~~~~~~~~~19~~~~~~~~~~~~~20~~~~~~~~~~~~~|

e|-------------------------------------------------------------|
B|13~~~~~~~~~~~~~~17~~~~~~~~~~~~~15~~~~~~~~~~~~~12~~~~~~~~~~~~~|

keep playing these till the end of the video. again, just listen to the song and try to aim it when it switches. I hope this helps, thanks (:

guest
You may want to rate the tab now too:
select rating
Wanna post a correction for this tab? Suggest correction