Oops, an error
Loading. Please wait.
We have an official Cmere tab made by UG professional guitarists. Check out the tab »
×
23,404 views 21 this week
no commentswrite comment
1 2 3 4 5
x 4
add to favorites
×
Save as Personal and add changes to this tab that will be seen only by you. Learn more ›
×
You can save this tab as Personal to edit and correct it or add notes. All changes will be seen only by you. Learn more »
launch autoscroll
font size
0
reset
guitar tuner
backing track
0:00
0:00
edit
Autoscroll
slow
fast
+/-
esc
set tempo
stop
C'mere (bass)
by Interpol (off the album "Antics", 2005)

Drop D tuning

Enjoy!

_____________________________________________________________________________
	INTRO[0:00]
_____________________________________________________________________________

Bass rests until the snare hits at 0:05:

G|-----------------|----------------|
D|-----------------|----------------|
A|-----------------|-5--\-----------|
D|-------------7-7-|----------------|
             (16ths)


_____________________________________________________________________________
	VERSE[0:08]
_____________________________________________________________________________

G|-----------------|-----------------|-----------------|-----------------|
D|-3-3-3-3-3-3-3-3-|-3-3-3-3-3-3-3-3-|-----------------|-----------------|
A|-----------------|-----------------|-5-5-5-5-5-5-5-5-|-5-5-5-5-5-5-5-5-|
D|-----------------|-----------------|-----------------|-----------------|

G|-----------------|-----------------|-----------------|-----------------|
D|-3-3---3-3-3---3-|-3-3---3-3-3-3-3-|-----------------|-----------------|
A|-----------------|-----------------|-5-5-5-5-5-5-5-5-|-5-5-5-5-5-5-5-5-|
D|-----------------|-----------------|-----------------|-----------------|

G|-----------------|-----------------|-----------------|-----------------|
D|-----------------|-----------------|-----------------|-----------------|
A|-----------------|-----------------|-----------------|-----------------|
D|-7-7-7-7-7-7-7-7-|-7-7-7-7-7-7-7-7-|-5-5-5-5-5-5-5-5-|-5-5-0-0-1-1-2-2-|


_____________________________________________________________________________
	VERSE[0:30]
_____________________________________________________________________________

Here it sounds like he slides up a lot on the recording, implying it's all on
the D strings, however live he doesn't, so I'm tabbing it like this. =]

G|-----------------|-----------------|---------7-------|---------7-------|
D|---------3-------|---------3-------|-----------------|-----------------|
A|-----------------|-----------------|/5-5-5-5---5---5-|/5-5-5-5---5---5-|
D|-3-3-3-3---3---3-|-3-3-3-3---3---3-|-----------------|-----------------|

G|-------------------------|-----------------|-----------------|-----------7-7-7-|
D|-------------------------|-----------------|-----------------|-------7-7-------|
A|-------------------------|-----------------|-5-5-5-5-5-5-5-5-|-0-0-0-----------|
D|-10-10-10-10-10-10-10-10\|-3-3-3-3-3-3-3-3-|-----------------|-----------------|

G|-----------------|-----------------|-----------------|------------12------|
D|-----------------|---------7-7-6-6-|-5-5-5-5-5-------|-5-5-5-5/12----12\--|
A|-----------------|-------7---------|-----------5---5-|--------------------|
D|-7-7-7-7-7-7-7-7-|-7-7-7-----------|-------------7---|--------------------|


_____________________________________________________________________________
	CHORUS[0:53]
_____________________________________________________________________________

G|-----------------|-----------------|
D|-----------------|-----------------|
A|-8-8-5-5---------|-----------------|
D|---------7-7-7-7-|-5-5-5-8---5-8-5-| 

G|-----------------|-----------------|
D|-----------------|-----------------|
A|-8-8-8-5---------|-----------------|
D|---------7-7-7-7-|-5-5-5-8---5-8-5-| 

G|-----------------|-----------------|
D|-----------------|-----------------|
A|-8-8-8-5---------|-----------------|
D|---------7-7-7-7-|(5-3-5-3-5-3-5-3)|

_____________________________________________________________________________
	VERSE[1:04]
_____________________________________________________________________________

As second verse [0:30]

_____________________________________________________________________________
	CHORUS[1:27]
_____________________________________________________________________________

G|-----------------|-----------------|
D|-----------------|-----------------|
A|-8-8-5-5---------|-----------------|
D|---------7-7-7-7-|-5-5-5-8---5-8-5-|

G|-----------------|-----------------|
D|-----------------|-----------------|
A|-8-8-8-5---------|-----------------|
D|---------7-7-7-7-|-5-5-5-8---5-8-5-| 

G|-----------------|-----------------|
D|-----------------|-----------------|
A|-8-8-8-5---------|-----------------|
D|---------7-7-7-7-|-5-5-5-8---5-8-5-| 

G|----------10-10-10----|-10--------------|
D|-------10----------10-|-----------------|
A|-8-8-8----------------|-----------------|
D|----------------------|-----------------|

_____________________________________________________________________________
	BRIDGE[1:43]
_____________________________________________________________________________

G|-----------------|-----------------|
D|-----------------|-----------------|
A|-------8-8-5-5-5-|-------5---7---7-|
D|-8---------------|-7---------------| (x3)

G|-----------------|-----------------|
D|-----------------|-----------------|
A|-------8-8-5-5-5-|-------5-5-7-7-7-|
D|-8---------------|-7---------------|


_____________________________________________________________________________
	PRECHORUS/INTERLUDE[1:58]
_____________________________________________________________________________


G|-----------------|
D|-----------------|
A|-8---------------|
D|-----------------|
(staccato)

Rest until 2:06

G|-19-17----19-17----19-17-|---19-17----19-17-----|
D|-------------------------|----------------------|
A|-------------------------|----------------------|
D|-------------------------|----------------------|

G|-17-19----17-19----17-19-|---17-19----17-19-----|
D|-------------------------|----------------------|
A|-------------------------|----------------------|
D|-------------------------|----------------------|

("Are sleeping...")

G|-----------------|-----------------|-------------------------|
D|-7-7-7-7-7-7-7-7-|-7-7-7-7-7-7-7-7-|-------------------------|
A|-----------------|-----------------|-10-10-10-10-10-10-10-10-|
D|-----------------|-----------------|-------------------------|

G|----12----12----7-----9--|
D|-------------------------|
A|-10----10----5-----7-----|
D|-------------------------|

_____________________________________________________________________________
	CHORUS[2:22]
_____________________________________________________________________________

G|-----------------|-----------------|
D|-----------------|-----------------|
A|-8-8-5-5---------|-----------------|
D|---------7-7-7-7-|-5-5-5-8---5-8-5-|

G|-----------------|-----------------|
D|-----------------|-----------------|
A|-8-8-8-5---------|-----------------|
D|---------7-7-7-7-|-5-5-5-8---5-8-5-| 

G|-----------------|-----------------|
D|-----------------|-----------------|
A|-8-8-5-5---------|-----------------|
D|---------7-7-7-7-|-5-5-5-8---5-8-5-|

G|-----------------|------------10-10-10-|
D|---------7-7-7---|---7-7-7-10----------|
A|-8-8-8-5-------8-|-8-------------------|
D|-----------------|---------------------| (I think this is right)


_____________________________________________________________________________
	BRIDGE[2:37]
_____________________________________________________________________________

G|-----------------|-----------------|
D|-----------------|-----------------|
A|-------8-8-5-5-5-|-------5---7---7-|
D|-8---------------|-7---------------| (x3)

G|-----------------|----------------------14---14-\-|
D|-----------------|--------7-----7-7---------------|
A|-------8-8-5-5-5-|------------7-----7-------------|
D|-8---------------|-7------------------------------|
                                (16ths)


_____________________________________________________________________________
	OUTRO[2:53]
_____________________________________________________________________________

G|-----------------|-----------------|-----------------|-----------------|
D|-----------------|-----7-----7---7-|-----------------|-----------------|
A|-----------------|-----------------|-----------------|-----------------|
D|-8-8-8-8-8-8-8-8-|-7-7---7-7---7---|-8-8-8-8-8-8-8-8-|-7-7-7-7-5-5-3-3-|

G|-----------------|-----------------|-----------------|-----------------|
D|-----------------|-----7-----------|-----8-----8---8-|-7---------------|
A|-----------------|-----------------|-----------------|-----------------|
D|-8-8-8-8-8-8-8-8-|-7-7---7-7-7-7-7-|-8-8---8-8---8---|-----------------|

_____________________________________________________________________________

That's the end :)

_____________________________________________________________________________
	LYRICS
_____________________________________________________________________________

Verse

It's way too late to be this locked inside ourselves
The trouble is that you're in love with someone else
It should be me
Oh, it should be me 

Verse

Your sacred parts, your getaways
You come along on summer days
Tenderly
Tastefully 

Chorus

And so may, we make time
Try to find somebody else
This place is mine 

Verse

You said today, you know exactly how I feel
I have my doubts little girl
I'm in love with something real
It could be me, that's changing 

Chorus

And so may, we make time
To try and find somebody else
Who has a line 

Bridge

Now seasoned with health
Two lovers walk a lakeside mile
Try pleasing with stealth, rodeo 
See what stands long ending fast

Prechorus/Interlude

Oh, how I love you in the evening
When we are sleeping
We are sleeping
Oh, we are sleeping 

Chorus

And so may, we make time
We try to find somebody else
Who has a line 

Bridge

Now seasoned with health
Two lovers walk a lakeside mile
Try pleasing with stealth, rodeo
See what stands long
Oh ending fast
_____________________________________________________________________________

Key:
/ 	- Slide up
\ 	- Slide down
b 	- Bend
r 	- Return
x 	- Mute
PM 	- Palm mute
~ 	- Let ring/vibrato
h	- Hammer-on
p	- Pull-off
()	- Quiet/Ghost note
<>	- Harmonic
#n#	- Tremelo pick
-\	- Parts played together 

-/
V	- w/bar

            
            
Suggest correction
Creating personal tab
Creating personal tab
You can edit any tab online and save it as your Personal.

You can edit, replace or remove any tab part or add personal notes – all changes will be seen only by you.

Personal tabs can be accessed anytime from any device, even offline.
Learn more »
comments
print report bad tab
guest
You may want to rate the tab now too:
select rating
Wanna post a correction for this tab? Suggest correction