Oops, an error
Loading. Please wait.

Malfeasance Bass Tab

10 views 3 this week
no commentswrite comment
1 2 3 4 5
2 more votes to show rating
add to favorites
launch autoscroll
font size
0
reset
guitar tuner
Autoscroll
slow
fast
+/-
esc
set tempo
stop
Help us to improve Ultimate-Guitar.com Take our survey!
×
Author
Difficulty
Tuning
novice
D A D G B E
About this tab version
Complete Bass guitar part with variations. Was this info helpful? Yes No
Interpol
"Malfeasance"

Drop-D tuning

[Verse]

G|----------------|----------------|----------------|----------------|
D|----------------|----------4-4-2-|------4-5-5-2-2-|------4-5-5-2-2-|
A|2-2---2---2-4-5-|0-0---0---------|----------------|----------------|
D|----------------|----------------|2---------------|2---------------|

G|----------------|----------------|----------------|----------------|
D|----------------|----------4-4-2-|------4-5-5-2-2-|--------2---2---|
A|2-----2---2-4-5-|0-----0---------|----------------|----------------|
D|----------------|----------------|2---------------|2-----2---2-----|

G|----------------|----------------|----------------|----------------|
D|--------4-4-----|--------4-4-5-5-|------4-5-5-2-2-|------4-5-5-2-2-|
A|2-----2-----5-5-|0-----0---------|----------------|----------------|
D|----------------|----------------|2---------------|2---------------|

G|----------------|----------------|----------------|----------------|
D|----------------|----------4-4-2-|------2-2-2-2---|2-----2---2-----|
A|2-----2---2-4-5-|0-----0---------|----------------|----------------|
D|----------------|----------------|2---------------|--2-----2---2---|


[Pre-Chorus]
                                    slight bend
G|----------------|----------------|----------------|----------------|
D|----------------|----------------|----------------|----------------|
A|2-2-2-2-2-2-2-2-|0-0-0-0-0-0-0-0/|7-7-7-7-7-7-7-7-|5-5-5-5-5-4-4-2-|
D|----------------|----------------|----------------|----------------|

G|----------------|----------------|----------------|----------------|
D|----------------|----------------|----------------|----------------|
A|2-2-2-2-2-2-2-2-|0-0-0-0-0-0-0-0/|8-8-8-8-8-8-8-8-|8-8-8-8-8----7-7|
D|----------------|----------------|----------------|----------------|

G|----------------|----------------|
D|----------------|----------------|
A|2-2-2-2-2-2-2-2-|0-0-0-0-0-0-0-0-|
D|----------------|----------------|


[Break]

G|----------------|----------------|----------------|----------------|
D|----------------|---------44-4-2-|------4-5-5-2-2-|------4-5-5-4-2-|
A|2-----2---2-4-5-|0-----0---------|----------------|----------------|
D|----------------|----------------|2---------------|2---------------|


[Verse]

G|----------------|----------------|----------------|----------------|
D|----------------|--------4-4-2-2-|------4-5-5-2-2-|--------2---2---|
A|2-----2---2-4-5-|0-----0---------|----------------|----------------|
D|----------------|----------------|2---------------|2-----2---2-----|

G|----------------|----------------|----------------|----------------|
D|--------4-4-----|--------4---5-4-|------4-5-5-2-2-|------4---5---2-|
A|2-----2-----5-5-|0-----0---------|----------------|----------------|
D|----------------|----------------|2---------------|2---------------|

G|----------------|----------------|----------------|----------------|
D|----------------|----------4-4-2-|------2-2-2-2---|2-----2---2-4---|
A|2-----2---2-4-5-|0-----0---------|----------------|----------------|
D|----------------|----------------|2---------------|--2-------------|


[Pre-Chorus]
                                    slight bend
G|----------------|----------------|----------------|----------------|
D|----------------|----------------|----------------|----------------|
A|2-2-2-2-2-2-2-2-|0-0-0-0-0-0-0-0/|7-7-7-7-7-7-7-7-|5-5-5-5-5-4-4-2-|
D|----------------|----------------|----------------|----------------|

G|----------------|----------------|----------------|----------------|
D|----------------|----------------|----------------|----------------|
A|2-2-2-2-2-2-2-2-|0-0-0-0-0-0-0-0/|8-8-8-8-8-8-8-8-|8-8-8-8-8----7-7|
D|----------------|----------------|----------------|----------------|

G|----------------|----------------|
D|----------------|----------------|
A|2-2-2-2-2-2-2-2-|0-0-0-0-0-0-0-0-|
D|----------------|----------------|


[Chorus]
  PM               PM               PM               PM
G|----------------|----------------|----------------|----------------|
D|----------------|----------------|----------------|----------------|
A|----------------|----------------|----------------|----------------| X2
D|5-5-xxxx5-5-xxxx|7-7-xxxx7-7-xxxx|2-2-xxxx2-2-xxxx|5-5-xxxx5---4---|


[Break]

G|----------------|----------------|----------------|----------------|
D|----------------|---------44-4-2-|------4-5-5-2-2-|------4---5---2-|
A|2-----2---2-4-5-|0-----0---------|----------------|----------------|
D|----------------|----------------|2---------------|2---------------|

G|----------------|----------------|----------------|----------------|
D|----------------|----------4-4-2-|------4-5-5-2-2-|------4---5---2-|
A|2-----2---2-4-5-|0-----0---------|----------------|----------------|
D|----------------|----------------|2---------------|2---------------|


[Verse]

G|----------------|----------------|----------------|----------------|
D|--------4-4-----|--------4-4-5-5-|------4-5-5-2-2-|------4---5-2---|
A|2-----2-----5-5-|0-----0---------|----------------|----------------|
D|----------------|----------------|2---------------|2---------------|

G|----------------|----------------|----------------|----------------|
D|----------------|---------44-4-2-|------4-5-5-2---|4-2-------2-4---|
A|2-----2---2-4-5-|0-----0---------|----------------|----------------|
D|----------------|----------------|2---------------|------2---------|


[Pre-Chorus]

G|----------------|----------------|----------------|----------------|
D|----------------|----------------|----------------|----------------|
A|2-2-2-2-2-2-2-2-|0-0-0-0-0-0-0-0/|7-7-7-7-7-7-7-7-|5-5-5-5-5-4-4-4-|
D|----------------|----------------|----------------|----------------|

G|----------------|----------------|----------------|----------------|
D|----------------|----------------|----------------|----------------|
A|2-2-2-2-2-2-2-2-|0-0-0-0-0-0-0-0/|8-8-8-8-8-8-8-8-|8-8-8-5-5-4-4-4-|
D|----------------|----------------|----------------|----------------|

G|----------------|----------------|
D|----------------|----------------|
A|2-2-2-2-2-2-2-2-|0-0-0-0-0-0-0-0-|
D|----------------|----------------|


[Chorus]
  PM               PM               PM               PM
G|----------------|----------------|----------------|----------------|
D|----------------|----------------|----------------|----------------|
A|----------------|----------------|----------------|----------------| X4
D|5-5-xxxx5-5-xxxx|7-7-xxxx7-7-xxxx|2-2-xxxx2-2-xxxx|5-5-xxxx5---4---|


[Outro]

G|--------------------------------|--------------------------------|
D|3---3-3-3-3-3-3-3---3-3-3-3-3-3-|3---3-3-3-3-3-3-3---3-3-3-3-3-3-| This part can be played higher
A|--------------------------------|--------------------------------| up the neck on the lower strings
D|--------------------------------|--------------------------------| for a thicker sound
                                                                    X8
G|--------------------------------|--------------------------------|
D|2---2-2-2-2-2-2-2---2-2-2-2-2-2-|5---5-5-5-5-5-5-5---5-5-5-5-5-5-|
A|--------------------------------|--------------------------------|
D|--------------------------------|--------------------------------|

[End]

G|----------------|
D|3---------------|
A|----------------|
D|----------------|



************************************

| x   Dead note
| /   Slide up

************************************
Suggest correction
Give kudos to tab author, rate the tab!
1 2 3 4 5
comments
print report bad tab
guest
You may want to rate the tab now too:
select rating
Wanna post a correction for this tab? Suggest correction