Oops, an error
Loading. Please wait.

Not Even Jail bass

version 2
version 2

Whole song

Interactive

10,433 views 9 this week
1 commentread comment
1 2 3 4 5
1 last vote to show rating
add to favorites
×
Save as Personal and add changes to this tab that will be seen only by you. Learn more ›
×
You can save this tab as Personal to edit and correct it or add notes. All changes will be seen only by you. Learn more »
launch autoscroll
font size
0
reset
guitar tuner
backing track
0:00
0:00
edit
Autoscroll
slow
fast
+/-
esc
set tempo
stop
Not Even Jail (Bass)
by Interpol (off the album "Antics", 2005)

Drop D tuning

This is the CD version. Enjoy!

_____________________________________________________________________________
	INTRO[0:00]
_____________________________________________________________________________


G|-----------------|-----------------|-----------------|-----------------|
D|-----------------|-----------------|-----------------|-----------------|
A|-3-3-3-3-3-3-3-3-|-3-3-3-3-3-3-3-3-|-3-3-3-3-3-3-3-3-|-3-3-3-3-0-0-0-0-|
D|-----------------|-----------------|-----------------|-----------------|

G|-----------------|-----------------|
D|-----------------|-----------------|
A|-7-7-7-7-7-7-7-7-|-7-7-7-7-7-6-5-4-|
D|-----------------|-----------------|


G|-----------------|-----------------|-----------------|-----------------|
D|-----------------|-----------------|-----------------|-----------------|
A|-3-3-3-3-3-3-3-0-|-3-3-3-3-3-3-3-3-|-3-3-3-3-3-3-3-3-|-3-3-3-3-0-0-0-0-|
D|-----------------|-----------------|-----------------|-----------------|

G|-----------------|-----------------|
D|-----------------|-----------------|
A|-7-7-7-7-7-7-7-7-|-7-7-7-7-7-6-5-4-|
D|-----------------|-----------------|


G|-----------------|-----------------|-----------------|-----------------|
D|-----------------|-----------------|-----------------|-----------------|
A|-3-3-3-3-3-3-3-3-|-3-3-3-3-3-3-3-3-|-3-3-3-3-3-3-3-3-|-3-3-3-3-0-0-0-0-|
D|-----------------|-----------------|-----------------|-----------------|

G|-----------------|-----------------|
D|-----------------|-----------------|
A|-7-7-7-7-7-7-7-7-|-7-7-7-7-7-6-5-4-|
D|-----------------|-----------------|


_____________________________________________________________________________
	VERSE[0:34]
_____________________________________________________________________________


G|-----------------|-----------------|-----------------|-----------------|
D|-----------------|-----------------|-----------------|-----------------|
A|-3-3-3-3-3-3-3-0-|-3-3-3-3-3-3-3-3-|-3-3-3-3-3-3-3-3-|-3-3-3-3-0-0-0-0-|
D|-----------------|-----------------|-----------------|-----------------|

G|-----------------|-----------------|
D|-----------------|-----------------|
A|-7-7-7-7-7-7-7-7-|-7-7-7-7-7-6-5-4-|
D|-----------------|-----------------|

G|-----------------|-----------------|-----------------|-----------------|
D|-----------------|-----------------|-----------------|-----------------|
A|-3-3-3-3-3-3-3-3-|-3-3-3-3-3-3-3-3-|-3-3-3-3-3-3-3-3-|-3-3-3-3-0-0-0-0-|
D|-----------------|-----------------|-----------------|-----------------|

G|-----------------|-----------------|
D|-----------------|-----------------|
A|-7-7-7-7-7-7-7-7-|-7-7-7-7-7-6-5-4-|
D|-----------------|-----------------|

G|-----------------|-----------------|-----------------|-----------------|
D|-----------------|-----------------|-----------------|-----------------|
A|-3-3-3-3-3-3-3-0-|-3-3-3-3-3-3-3-3-|-3-3-3-3-3-3-3-3-|-3-3-3-3-0-0-0-0-|
D|-----------------|-----------------|-----------------|-----------------|

G|-----------------|-----------------|
D|-----------------|-----------------|
A|-7-7-7-7-7-7-7-7-|-7-7-7-7-7-6-5-4-|
D|-----------------|-----------------|


("I'll say it now...") [1:09]

G|-----------------|-----------------|-----------------|-----------------|
D|-----------------|-----------------|-----------------|-----------------|
A|-3-3-3-3-3-3-3-3-|-3-3-3-3-3-3-3-3-|-3-3-3-3-3-3-3-3-|-3-3-3-3-0-0-0-0-|
D|-----------------|-----------------|-----------------|-----------------|


_____________________________________________________________________________
	PRECHORUS[1:17]
_____________________________________________________________________________

G|-----------------|-----------------|-----------------|-----------------|
D|-----------------|-----------------|-----------------|-----------------|
A|-7-7-7-7-7-7-7-7-|-7-7-7-7-7-7-7-7-|-5-5-5-5-5-5-5-5-|-5-5-5-5-5-5-5-5-|
D|-----------------|-----------------|-----------------|-----------------|

G|-----------------|-----------------|-----------------|-----------------|
D|-----------------|-----------------|-----------------|-----------------|
A|-3-3-3-3-3-3-3-3-|-3-3-3-3-5-5-7-7-|-8-8-8-8-8-8-8-8-|-8-8-8-8-8-8-8-8-|
D|-----------------|-----------------|-----------------|-----------------|

G|-----------------|-----------------|-----------------|-----------------|
D|-----------------|-----------------|-----------------|-----------------|
A|-7-7-7-7-7-7-7-7-|-5-5-5-5-5-5-5-5-|-3-3-3-3-3-3-3-3-|-3-3-3-3-5-5-7-7-|
D|-----------------|-----------------|-----------------|-----------------|

G|-----------------|-------------------|-----------------|-----------------|
D|-------7-7-------|---10-10-7-7-------|-------5-5-------|-------5-7-5-----|
A|-8-8-8-----8-8-8-|-8-----------8-8-8-|-8-7-7-----7-7-7-|-7-5-5-------7-5-|
D|-----------------|-------------------|-----------------|-----------------|

_____________________________________________________________________________
	CHORUS[1:48]
_____________________________________________________________________________

G|-----------------|-----------------|-----------------|-----------------|
D|-----------------|-----------------|-----------------|-----------------|
A|-3-3-3-3-3-3-3-3-|-3-3-3-3-3-7-7-7-|-5-5-5-5-5-5-5-5-|-5-5-5-5-5-7-7-7-|
D|-----------------|-----------------|-----------------|-----------------| (x2)

G|-----5-----------|-----------------|-----------------|-----------------|
D|-----------------|-5-5-5-5-5-5-5-5-|-------------7-7-|-9-9-9-7-7-7-5---|
A|-3-3---3-3-3-3-3-|-----------------|-5-5-5-5-5-5-----|---------------7-|
D|-----------------|-----------------|-----------------|-----------------|

("... To your end / Not even jail")

G|-----------------|-----------------|-----------------|-----------------|
D|-----------------|-----------------|-----------------|-----------------|
A|-3-3-3-3-3-3-3-3-|-3-3-3-3-3-3-3-5-|-7-7-7-7-7-7-7-7-|-7-7-7-7-7-5-5-5-|
D|-----------------|-----------------|-----------------|-----------------|

G|-----------------|-----------------|-----------------|-----------------|
D|-----------------|-----------------|-----------------|-----------------|
A|-5-5-5-5-5-5-5-5-|-5-5-5-5-5-3-3-3-|-3-3-3-3-3-3-3-3-|-3-3-3-3-3-3-3-3-|
D|-----------------|-----------------|-----------------|-----------------|

_____________________________________________________________________________
	INTERLUDE/INSTRU[2:25]
_____________________________________________________________________________

G|-----------------|-----------------|-----------------|-----------------|
D|-----------------|-----------------|-----------------|-----------------|
A|-3-3-3-3-3-3-3-3-|-3-3-3-3-3-3-3-3-|-3-3-3-3-3-3-3-3-|-3-3-3-3-0-0-0-0-|
D|-----------------|-----------------|-----------------|-----------------|

G|-----------------|-----------------|
D|-----------------|-----------------|
A|-7-7-7-7-7-7-7-7-|-7-7-7-7-7-6-5-4-|
D|-----------------|-----------------| (x2)

_____________________________________________________________________________
	VERSE[2:48]
_____________________________________________________________________________

As first verse

_____________________________________________________________________________
	PRECHORUS[3:30]
_____________________________________________________________________________

As first prechorus

_____________________________________________________________________________
	CHORUS[4:01]
_____________________________________________________________________________

G|-----------------|-----------------|-----------------|-----------------|
D|-----------------|-----------------|-----------------|-----------------|
A|-3-3-3-3-3-3-3-3-|-3-3-3-3-3-7-7-7-|-5-5-5-5-5-5-5-5-|-5-5-5-5-5-7-7-7-|
D|-----------------|-----------------|-----------------|-----------------| (x2)

G|-----5-----------|-----------------|-----------------|-----------------|
D|-----------------|-5-5-5-5-5-5-5-5-|-------------7-7-|-9-9-9-7-7-7-5---|
A|-3-3---3-3-3-3-3-|-----------------|-5-5-5-5-5-5-----|---------------7-|
D|-----------------|-----------------|-----------------|-----------------|

("... To your end / Not even jail")

G|-----------------|-----------------|-----------------|-----------------|
D|-----------------|-----------------|-----------------|-----------------|
A|-3-3-3-3-3-3-3-3-|-3-3-3-3-3-3-3-5-|-7-7-7-7-7-7-7-7-|-7-7-7-7-7-5-5-5-|
D|-----------------|-----------------|-----------------|-----------------|

G|-----------------|---------7-7-7-7-|
D|-----------------|-------7---------|
A|-5-5-5-5-5-5-5-5-|-5-5-5-----------|
D|-----------------|-----------------|


_____________________________________________________________________________
	OUTRO[4:34]
_____________________________________________________________________________

Rest until [4:49]

As drums come in:

(Listen for timings)

G|------------------------|-------------------|
D|------------------------|-------------------|
A|-----3-3-3--3--0--0--0--|-3--3--------------|
D|------------------------|-------------------|

G|------------------------|----------------9----| (staccato)
D|------------------------|---------------------|
A|-----3-3-3--3--0--0--0--|-3--3-----5---7---(7)|
D|------------------------|---------------------|

G|------------------------|-------------------|
D|------------------------|-------------------|
A|------------------------|-------------------|
D|-----5-5-5--5--7--7--7--|-5--5--------------|

G|------------------------|-------------------------|
D|------------------------|-------------------5-----|
A|------------------------|-------------------------|
D|-----5-5-5--5--7--7--7--|----5--5--5-5---5-----5--|

(repeat until end)


_____________________________________________________________________________

Done and done.


_____________________________________________________________________________
	LYRICS
_____________________________________________________________________________

Verse:

I'll lay down my glasses
I'll lay down in houses
If things come alive
I'll subtract pain by ounces
Yeah, I will start painting houses
If things come alive
I promise to commit no acts of violence
Be it physical or otherwise
If things come alive
I'll say it now
I'll say it now

Prechorus:

Say it now
Oh I'll say it now
Cause I want it now

Chorus:

When personality is scar tissue
It travels south with this use
I'm subtle like a lion's cage
Such a cautious display
Remember take hold of your time here
Give some meanings to the means
To your end
Not even jail

Verse:

We marshal in the days of longing
We tremble like anyone's children
And wink towards the fire
I am erring on this side of caution
Betraying no other symptom
But girl you shake it right
I will bounce you on the lap of silence
We will free love to the beats of science
And girl you shake it right
I'll say it now

Prechorus:

Oh but all this to learn and your hair's so free
Can't you feel all the warmth of my sincerity
You make motion when you cry
You're making peoples lives feel less private
Don't take time away
You make motion when you cry
We all hold hands
Can we all hold hands
When we make new plans

Chorus:

I pretend like no one else
To try and control myself
I'm subtle like a lion's cage
Such a cautious display
Remember take hold of your time here
Give some meanings to the means
To your end
Not even jail


_____________________________________________________________________________

Key:
/ 	- Slide up
\ 	- Slide down
b 	- Bend
r 	- Return
x 	- Mute
PM 	- Palm mute
~ 	- Let ring/vibrato
h	- Hammer-on
p	- Pull-off
()	- Quiet/Ghost note
<>	- Harmonic
#n#	- Tremelo pick
-\	- Parts played together 

-/
V	- w/bar

            
            
Suggest correction
Creating personal tab
Creating personal tab
You can edit any tab online and save it as your Personal.

You can edit, replace or remove any tab part or add personal notes – all changes will be seen only by you.

Personal tabs can be accessed anytime from any device, even offline.
Learn more »
Give kudos to tab author, rate the tab!
1 2 3 4 5
comments
print report bad tab
1 comment total.
0 reply
bearded_monkey 101 Jul 17, 2008 10:05 AM

Pretty perfect, top tab

guest
You may want to rate the tab now too:
select rating
Wanna post a correction for this tab? Suggest correction