Oops, an error
Loading. Please wait.

Obstacle 1 Tab

version 3
version 3
57,124 views 114 this week
1 commentread comment
1 2 3 4 5
x 35
add to favorites
launch autoscroll
font size
0
reset
how to read this tab
guitar tuner
Autoscroll
slow
fast
+/-
esc
set tempo
stop
Help us to improve Ultimate-Guitar.com Take our survey!
×
Difficulty
intermediate
Accordage (Tuning) standard : mi-la-ré-sol-si-mi (EADGBE)
obstacle 1 - Interpol

[Intro]
  Guitar 1
e|---------------------------------------------------------------------------------|
B|---------------------------------------------------------------------------------|
G|---------------------------------------------------------------------------------|
D|-10-10-10-10-10-7-7-7-7-7-7-7-7-10-10-10-10-10-10-10-10-7-7-7-7-7-7-7-7-10-10-10-|
A|-8--8--8--8--8--8-8-8-0-0-0-0-0-0--0--0--8--8--8--8--8--8-8-8-0-0-0-0-0-0--0--0--|
E|---------------------------------------------------------------------------------|

Guitar 2

e|-(8)(8)--(8)(8)---(8)(8)--(8)(8)--(8)(8)--(8)(8)---(8)(8)--(8)(8)-|
B|-10-10----10-10----10-10---10-10--10-10----10-10----10-10---10-10-|
G|-10-10----9--9-----10-10---9--9---10-10----9--9-----10-10---9--9--|
D|------------------------------------------------------------------|
A|------------------------------------------------------------------|
E|------------------------------------------------------------------|

[Verse 1 part 1]
"i wish i could eat the salt off of your lost faded lips"

  Guitar 1
e|---------------------------------------------------------------------------------|
B|---------------------------------------------------------------------------------|
G|---------------------------------------------------------------------------------|
D|-10-10-10-10-10-7-7-7-7-7-7-7-7-10-10-10-10-10-10-10-10-7-7-7-7-7-7-7-7-10-10-10-|
A|-8--8--8--8--8--8-8-8-0-0-0-0-0-0--0--0--8--8--8--8--8--8-8-8-0-0-0-0-0-0--0--0--|
E|---------------------------------------------------------------------------------|

  Guitar 2
e|-(8)(8)--(8)(8)---(8)(8)--(8)(8)--(8)(8)--(8)(8)---(8)(8)--(8)(8)-|
B|-10-10----10-10----10-10---10-10--10-10----10-10----10-10---10-10-|
G|-10-10----9--9-----10-10---9--9---10-10----9--9-----10-10---9--9--|
D|------------------------------------------------------------------|
A|------------------------------------------------------------------|
E|------------------------------------------------------------------|

[Verse 1 part 2]
"we can cap the old times make playing only logical harm"

  Guitar 1
e|---------------------------------------------------------------------------------|
B|---------------------------------------------------------------------------------|
G|---------------------------------------------------------------------------------|
D|-10-10-10-10-10-7-7-7-7-7-7-7-7-10-10-10-10-10-10-10-10-7-7-7-7-7-7-7-7-10-10-10-|
A|-8--8--8--8--8--8-8-8-0-0-0-0-0-0--0--0--8--8--8--8--8--8-8-8-0-0-0-0-0-0--0--0--|
E|---------------------------------------------------------------------------------|


  Guitar 2
e|-12 12-----12 12-----12 12-----12 12-----12 12-----12 12-----12 12-----12 12----|
B|-13-13-----13-13-----13-13-----13-13-----13-13-----13-13-----13-13-----13-13----|
G|--------------------------------------------------------------------------------|
D|--------------------------------------------------------------------------------|
A|--------------------------------------------------------------------------------|
E|--------------------------------------------------------------------------------|

[Verse 1 part 3]
"we cap the old lines make playing that nothing else will change"

  Guitar 1
e|---------------------------------------------------------------------------------|
B|---------------------------------------------------------------------------------|
G|---------------------------------------------------------------------------------|
D|-10-10-10-10-10-7-7-7-7-7-7-7-7-10-10-10-10-10-10-10-10-7-7-7-7-7-7-7-7-10-10-10-|
A|-8--8--8--8--8--8-8-8-0-0-0-0-0-0--0--0--8--8--8--8--8--8-8-8-0-0-0-0-0-0--0--0--|
E|---------------------------------------------------------------------------------|


  Guitar 2
e|-(8)(8)--(8)(8)---(8)(8)--(8)(8)--(8)(8)--(8)(8)---(8)(8)--(8)(8)-|
B|-10-10----10-10----10-10---10-10--10-10----10-10----10-10---10-10-|
G|-10-10----9--9-----10-10---9--9---10-10----9--9-----10-10---9--9--|
D|------------------------------------------------------------------|
A|------------------------------------------------------------------|
E|------------------------------------------------------------------|

[Verse 1 part 4]
"well she can read, she can read, she can read, she can read, shes bad
she can read, she can read, she can read, she bad, oh shes bad"

  Guitar 1
e|---------------------------------------------------------------------------------|
B|---------------------------------------------------------------------------------|
G|---------------------------------------------------------------------------------|
D|-10-10-10-10-10-7-7-7-7-7-7-7-7-10-10-10-10-10-10-10-10-7-7-7-7-7-7-7-7-10-10-10-|
A|-8--8--8--8--8--8-8-8-0-0-0-0-0-0--0--0--8--8--8--8--8--8-8-8-0-0-0-0-0-0--0--0--|
E|---------------------------------------------------------------------------------|

  Guitar 2
e|-12 12-----12 12-----12 12-----12 12-----12 12-----12 12-----12 12-----12 12----|
B|-13-13-----13-13-----13-13-----13-13-----13-13-----13-13-----13-13-----13-13----|
G|--------------------------------------------------------------------------------|
D|--------------------------------------------------------------------------------|
A|--------------------------------------------------------------------------------|
E|--------------------------------------------------------------------------------|

[Verse 1 part 5]
a) (instrumental)

  Guitar 2
e|-12 12-----12 12-----12 12-----12 12-----12 12-----12 12-----12 12-----12 12----|
B|-13-13-----13-13-----13-13-----13-13-----13-13-----13-13-----13-13-----13-13----|
G|--------------------------------------------------------------------------------|
D|--------------------------------------------------------------------------------|
A|--------------------------------------------------------------------------------|
E|--------------------------------------------------------------------------------|


b) "oh she's bad..." (+ guitar 1)
(Attention au contre-temps entre guitar 1 et guitar 2 : les deux portées de tablatures 
correspondent verticalement)
Les T.. représentent les temps. Ils servent à placer les notes correctement en suivant 
la concordance verticale avec la portée de tabs.

Temps
-T1------T2-------T3-------T4-------T5-------T6-------T7-------T8-----------

  Guitar 1
e|------------------------------------------------------------------------|
B|-10-10----10-10----10-10----10-10-10-10----10-10---10-10----10-10-------|
G|-10-10----10-10----10-10----10-10-10-10----9--9----9--9-----9--9--------|
D|------------------------------------------------------------------------|
A|------------------------------------------------------------------------|
E|------------------------------------------------------------------------|

  Guitar 2
e|-12 12----12 12----12 12----12 12----12 12----12 12----12 12----12 12----|
B|-13-13----13-13----13-13----13-13----13-13----13-13----13-13----13-13----|
G|-------------------------------------------------------------------------|
D|-------------------------------------------------------------------------|
A|-------------------------------------------------------------------------|
E|-------------------------------------------------------------------------|

[Chorus 1]
a) "but its different now that im poor and im aging I ll never see this place again"

  Guitar 1&2
e|----------------------------------------------------------------------------------|
B|----------------------------------------------------------------------------------|
G|-10-10-10-10-10-10-10-10--10-10-10-10-10-10-10-10-2--2--2--2--2--2--2--2--2--2----|
D|-10-10-10-10-10-10-10-10--10-10-10-10-10-10-10-10-2--2--2--2--2--2--2--2--2--2----|
A|-8--8--8--8--8--8--8--8---8--8--8--8--8--7--7--7--0--0--0--0--0--0--0--0--0--0----|
E|----------------------------------------------------------------------------------|

e|----------------------------|
B|----------------------------|
G|5--5--5--5--5--5--5--5------|
D|5--5--5--5--5--5--5--5------|
A|3--3--3--3--3--3--3--3------|
E|----------------------------|

b) "youll go stabing yourself in the neck"

  Guitar 1&2
e|----------------------------------------------------------------------------------|
B|----------------------------------------------------------------------------------|
G|-10-10--10-10---10-10---10-10-2--2--2--2--2--2--2--2--5--5--5--5--5--5--5--5------|
D|-10-10--10-10---10-10---10-10-2--2--2--2--2--2--2--2--5--5--5--5--5--5--5--5------|
A|-8--8--8--8-----8--8----7--7--0--0--0--0--0--0--0--0--3--3--3--3--3--3--3--3------|
E|----------------------------------------------------------------------------------|

[Reprise]
(instrumental)

  Guitar 1
e|---------------------------------------------------------------------------------|
B|---------------------------------------------------------------------------------|
G|---------------------------------------------------------------------------------|
D|-10-10-10-10-10-7--7--7--7--7--7--7--7--10-10-10-10-10-10-10-10-7--7--7--7--7--7-|
A|-8--8--8--8--8--8--8--8--0--0--0--0--0--0--0--0--8--8--8--8--8--8--8--8--0--0--0-|
E|---------------------------------------------------------------------------------|

e|-------------------|
B|-------------------|
G|-------------------|
D|-7--7--10-10-10----|
A|-0--0--0--0--0-----|
E|-------------------|

  Guitar 2
e|----------------------------------------------------------------------------------|
B|----------------------------------------------------------------------------------|
G|-------------------------7--7--7--7--7--7--7--7--10-10-10-10-10-10-10-10-10-14----|
D|----------------------------------------------------------------------------------|
A|----------------------------------------------------------------------------------|
E|----------------------------------------------------------------------------------|

e|----------------------|
B|----------------------|
G|14-14-14-14-14-14-----|
D|----------------------|
A|----------------------|
E|----------------------|

[Verse 2 part 1]
"and we can find new ways of living make playing only logical harm"

  Guitar 1
e|---------------------------------------------------------------------------------|
B|---------------------------------------------------------------------------------|
G|---------------------------------------------------------------------------------|
D|-10-10-10-10-10-7-7-7-7-7-7-7-7-10-10-10-10-10-10-10-10-7-7-7-7-7-7-7-7-10-10-10-|
A|-8--8--8--8--8--8-8-8-0-0-0-0-0-0--0--0--8--8--8--8--8--8-8-8-0-0-0-0-0-0--0--0--|
E|---------------------------------------------------------------------------------|

Guitar 2

e|-(8)(8)--(8)(8)---(8)(8)--(8)(8)--(8)(8)--(8)(8)---(8)(8)--(8)(8)-|
B|-10-10----10-10----10-10---10-10--10-10----10-10----10-10---10-10-|
G|-10-10----9--9-----10-10---9--9---10-10----9--9-----10-10---9--9--|
D|------------------------------------------------------------------|
A|------------------------------------------------------------------|
E|------------------------------------------------------------------|

[Verse 2 part 2]
"and we can top the old times clay making that nothing else will change"

  Guitar 1
e|---------------------------------------------------------------------------------|
B|---------------------------------------------------------------------------------|
G|---------------------------------------------------------------------------------|
D|-10-10-10-10-10-7-7-7-7-7-7-7-7-10-10-10-10-10-10-10-10-7-7-7-7-7-7-7-7-10-10-10-|
A|-8--8--8--8--8--8-8-8-0-0-0-0-0-0--0--0--8--8--8--8--8--8-8-8-0-0-0-0-0-0--0--0--|
E|---------------------------------------------------------------------------------|


  Guitar 2
e|-(8)(8)--(8)(8)---(8)(8)--(8)(8)--(8)(8)--(8)(8)---(8)(8)--(8)(8)-|
B|-10-10----10-10----10-10---10-10--10-10----10-10----10-10---10-10-|
G|-10-10----9--9-----10-10---9--9---10-10----9--9-----10-10---9--9--|
D|------------------------------------------------------------------|
A|------------------------------------------------------------------|
E|------------------------------------------------------------------|

[Verse 2 part 3]
"but she can read, she can read, she can read, she can read, shes bad
she can read, she can read, she can read, shes bad, oh shes bad"


  Guitar 1
e|---------------------------------------------------------------------------------|
B|---------------------------------------------------------------------------------|
G|---------------------------------------------------------------------------------|
D|-10-10-10-10-10-7-7-7-7-7-7-7-7-10-10-10-10-10-10-10-10-7-7-7-7-7-7-7-7-10-10-10-|
A|-8--8--8--8--8--8-8-8-0-0-0-0-0-0--0--0--8--8--8--8--8--8-8-8-0-0-0-0-0-0--0--0--|
E|---------------------------------------------------------------------------------|

  Guitar 2
e|-12 12-----12 12-----12 12-----12 12-----12 12-----12 12-----12 12-----12 12----|
B|-13-13-----13-13-----13-13-----13-13-----13-13-----13-13-----13-13-----13-13----|
G|--------------------------------------------------------------------------------|
D|--------------------------------------------------------------------------------|
A|--------------------------------------------------------------------------------|
E|--------------------------------------------------------------------------------|

[Chorus 2]
a) "but its different now that im poor and im aging I ll never see this place again"


  Guitar 1&2
e|----------------------------------------------------------------------------------|
B|----------------------------------------------------------------------------------|
G|-10-10-10-10-10-10-10-10--10-10-10-10-10-10-10-10-2--2--2--2--2--2--2--2--2--2----|
D|-10-10-10-10-10-10-10-10--10-10-10-10-10-10-10-10-2--2--2--2--2--2--2--2--2--2----|
A|-8--8--8--8--8--8--8--8---8--8--8--8--8--7--7--7--0--0--0--0--0--0--0--0--0--0----|
E|----------------------------------------------------------------------------------|

e|----------------------------|
B|----------------------------|
G|5--5--5--5--5--5--5--5------|
D|5--5--5--5--5--5--5--5------|
A|3--3--3--3--3--3--3--3------|
E|----------------------------|


b) "youll go stabing yourself in the neck"

  Guitar 1&2
e|---------------------------------------------------------------------------------|
B|---------------------------------------------------------------------------------|
G|-10-10-------10-10--------10-10-------10-10------------2--2--2--2--2--2--2--2--5-|
D|-10-10-------10-10--------10-10-------10-10------------2--2--2--2--2--2--2--2--5-|
A|-8--8--------8--8---------8--8--------7--7-------------0--0--0--0--0--0--0--0--3-|
E|---------------------------------------------------------------------------------|

e|-------------------------|
B|-------------------------|
G|-5--5--5--5--5--5--5-----|
D|-5--5--5--5--5--5--5-----|
A|-3--3--3--3--3--3--3-----|
E|-------------------------|



c) "but its different now that im poor and im aging I ll never see this place again"

  Guitar 1&2
e|----------------------------------------------------------------------------------|
B|----------------------------------------------------------------------------------|
G|-10-10-10-10-10-10-10-10--10-10-10-10-10-10-10-10-2--2--2--2--2--2--2--2--2--2----|
D|-10-10-10-10-10-10-10-10--10-10-10-10-10-10-10-10-2--2--2--2--2--2--2--2--2--2----|
A|-8--8--8--8--8--8--8--8---8--8--8--8--8--7--7--7--0--0--0--0--0--0--0--0--0--0----|
E|----------------------------------------------------------------------------------|


e|----------------------------|
B|----------------------------|
G|5--5--5--5--5--5--5--5------|
D|5--5--5--5--5--5--5--5------|
A|3--3--3--3--3--3--3--3------|
E|----------------------------|

d) "youll go stabing yourself in the neck"

  Guitar 1&2
e|---------------------------------------------------------------------------------|
B|---------------------------------------------------------------------------------|
G|-10-10-------10-10--------10-10-------10-10------------2--2--2--2--2--2--2--2--5-|
D|-10-10-------10-10--------10-10-------10-10------------2--2--2--2--2--2--2--2--5-|
A|-8--8--------8--8---------8--8--------7--7-------------0--0--0--0--0--0--0--0--3-|
E|---------------------------------------------------------------------------------|

e|---------------------------|
B|---------------------------|
G|-5--5--5--5--5--5--5-------|
D|-5--5--5--5--5--5--5-------|
A|-3--3--3--3--3--3--3-------|
E|---------------------------|

[Outro part 1]
"its in the way that she poses
its in the things that she puts in my heart
her stories are boring and stuff
shes always calling my bluff
she puts the, she puts the weights in to my little heart and she gets in my room 
and she takes apart
she puts the weights into my little heart
i said she puts the weights into my little heart"


-T1----T2----T3----T4----T5----T6----T7----T8--------------------------------

  GUITAR 2 (Daniel)
e|----------12-------------12--------------------------------------------------|
B|----13-------------13-------------13----13-----------------------------------|
G|-14----14-------14----14-------14----14----14--------------------------------|
D|-----------------------------------------------------------------------------|
A|-----------------------------------------------------------------------------|
E|-----------------------------------------------------------------------------|

Les T.. représentent les temps. Ils servent à placer les notes correctement
en suivant la concordance verticale avec la portée de tabs.

[Outro part 2]
"she packs it away, she packs it away, she packs it away, she packs it away,
she packs it away, she packs it away, she packs it away"

  guitar 1
e|1----------------------------------------------------|
B|2----------------------------------------------------|
G|3-------------------5--5--7--7--7--7--7--7--7--7-----|
D|4-5--5--5--7--7--7-----------------------------------|
A|5----------------------------------------------------|
E|6-------------------------------------------------%--|

  guitar 2 (Daniel)
e|----------12-------------12--------------------------------------------------|
B|----13-------------13-------------13----13-----------------------------------|
G|-14----14-------14----14-------14----14----14--------------------------------|
D|-----------------------------------------------------------------------------|
A|-----------------------------------------------------------------------------|
E|-----------------------------------------------------------------------------|

[Outro part 3]
(Cette partie ne diffère que par l'entrée d'une guitare 3 dans la version studio.
Les tabs ci-dessous pour cette g3 sont justes, au niveau des accords (comme dans tout le 
morceau : F-Am),
mais les positions peut-être pas. Dans tous les cas, le rendu est à peu près le même)

"its in the way that she walks, everythings different now
she puts the weights in my heart
she puts the, she puts the weights into my little heart "


  guitar 1
e|1----------------------------------------------------|
B|2----------------------------------------------------|
G|3-------------------5--5--7--7--7--7--7--7--7--7-----|
D|4-5--5--5--7--7--7-----------------------------------|
A|5----------------------------------------------------|
E|6-------------------------------------------------%--|

  guitar 2 (Daniel)
e|----------12-------------12--------------------------------------------------|
B|----13-------------13-------------13----13-----------------------------------|
G|-14----14-------14----14-------14----14----14--------------------------------|
D|-----------------------------------------------------------------------------|
A|-----------------------------------------------------------------------------|
E|-----------------------------------------------------------------------------|

  guitar 3
e|-----------------------------------------------------------------------------|
B|-----------------------------------------------------------------------------|
G|--10-10-10-10-10-10-10-10-9--9--9--9--9--9--9--9-----------------------------|
D|--10-10-10-10-10-10-10-10-7--7--7--7--7--7--7--7-----------------------------|
A|--8--8--8--8--8--8--8--8--0--0--0--0--0--0--0--0-----------------------------|
E|-----------------------------------------------------------------------------|



************************************

| (n)  Ghost note 

************************************
Suggest correction
comments
print report bad tab
1 comment total.
-1 reply
jpnumber1 10 May 30, 2016 08:35 PM

great tab except for one part is wrong

this

Guitar 1
------------------------------------------------------------------------|
-10-10----10-10----10-10----10-10-10-10----10-10---10-10----10-10-------|
-10-10----10-10----10-10----10-10-10-10----9--9----9--9-----9--9--------|
------------------------------------------------------------------------|
------------------------------------------------------------------------|
------------------------------------------------------------------------|

is actually played like

---------------------------------------------------------------------
-10-10----10-10-----10-10-----10-10-10-10----10-10----10-10----10-10-
-14-14----14-14-----14-14-----14-14-14-14----14-14----14-14----14-14-
---------------------------------------------------------------------
---------------------------------------------------------------------
---------------------------------------------------------------------

https://www.youtube.com/watch?v=YKGMlJB2x_0

at 1:51 you can see him play it

guest
You may want to rate the tab now too:
select rating
Wanna post a correction for this tab? Suggest correction