Oops, an error
Loading. Please wait.

Precipitate bass

version 2
version 2

Whole song

  • This tab is based off the studio recording. https:... Show more
34 views 6 this week
no commentswrite comment
1 2 3 4 5
3 more votes to show rating
add to favorites
×
Save as Personal and add changes to this tab that will be seen only by you. Learn more ›
×
You can save this tab as Personal to edit and correct it or add notes. All changes will be seen only by you. Learn more »
launch autoscroll
font size
0
reset
guitar tuner
edit
Autoscroll
slow
fast
+/-
esc
set tempo
stop
About this tab version
This tab is based off the studio recording. https://www.youtube.com/watch?v=VFoEpGaW7-0 The majority of notes played are quavers (8th notes) with occasional rests between. Should be simple enough to read. Was this info helpful? Yes No
Bassist: Carlos D
Tuning: Drop D

This is the first tab I've written and I'm pretty sure it's almost exactly correct. The only area I'm unsure 
of is the Bridge section, specifically on the D string. Other than that, I think it's correct. Enjoy!


[Verse]
G|-----------------------------------------------------------------|
D|--------------0-2---2-2-2-2-2-2---------------------5-------0-0--| x2
A|3---2-3-2-3-3-------------------0---0-0-0-0-0-0---------3-3------|
D|------------------------------------------------3-3---3----------|

G|-----------------------------------------------------------------|
D|--------------0-2---2-2-2-2-2-2----------------------------------| x4
A|3---2-3-2-3-3-------------------0---0-0-0-7-7-7-7-8-8-8-8-5-5-5--|
D|-----------------------------------------------------------------|

G|---------------------------------------------------------------------|
D|---------------------------------------------------------------------|
A|3-3--3-3-3--3--3-3-3--3-3-3--2-2--2--2-2-2---7-7-7-7-7-7-7-7--7-7-7--| 
D|---------------------------------------------------------------------|

G|---------------------------------------------------|
D|---------------------------------------------0-0-0-|
A|3-3-3---3---3-3-3---3-2-2-2-2-2-2-2-2/7------------|  *Open D leads into Chorus*
D|---------------------------------------------------|

[Chorus]
G|--------------------4-------4-------------------------------------------------------4-------4---| 
D|0-2-2-2-2-----------------------2-2-2-0---0-0-0-0-2-2-2-2-3-3-3-2-2-2-2-------------------------|  
A|----------3-3-3-2-2---2-2-2---2-----------------------------------------3-3-3-3-2-2---2-2-2---2-|  
D|------------------------------------------------------------------------------------------------|

G|-----------------|--------|        *The Octave leaps here sound so quiet on the recording I feel as though 
D|-2-2-2-0---0-0-0-|-2~-----|         I have made them up.*
A|-----------------|--------|
D|-----------------|--------|

[Verse]
G|----------------------------------------------------------------|
D|--------------0-2---2-2-2-2-2-2---------------------------------|
A|3---2-3-3-2-3-------------------0---0-0-0-7-7-7-7-8-8-8-8-5(5)5-| x4   *(5) NOT played final time*
D|----------------------------------------------------------------|

G|----------------------------------------------------------------------------|
D|----------------------------------------------------------------------------|
A|3-3---3-3-3---3---3-3-3---3-3-3---2-2---2---2-2-2---7-7-7-7-7-7-7-7---7-7-7-|
D|----------------------------------------------------------------------------|

G|---------------------------------------------------|
D|---------------------------------------------0-0-0-|
A|3-3-3---3---3-3-3---3-2-2-2-2-2-2-2-2/7------------|
D|---------------------------------------------------|

[Chorus]
G|--------------------4-------4-------------------------------------------------------4-------4---|
D|0-2-2-2-2-----------------------2-2-2-0---0-0-0-0-2-2-2-2-3-3-3-2-2-2-2-------------------------|
A|----------3-3-3-2-2---2-2-2---2-----------------------------------------3-3-3-3-2-2---2-2-2---2-|
D|------------------------------------------------------------------------------------------------|

G|----------------------------------------------------4-------4----------------------------------------------|
D|2-2-2-0---0-0-0-0-2-2-2-2-3-3-3-2-2-2-2-2------------------------2-2-2-0---0-0-0---2-2-2-2-3-3-3-2-2-2-2-2-|
A|------------------------------------------3-3-3-2-2---2-2-2---2--------------------------------------------|
D|-----------------------------------------------------------------------------------------------------------|

G|----------4-------4-------------------|--------|
D|----------------------2-2-2-0---0-0-0-|2~------|
A|3-3-3-2-2---2-2-2---2-----------------|--------|
D|--------------------------------------|--------|

[Bridge]                  ------------------------------------------x4--------------------------------------
G|----|------|-----------|---------16-------------------16-16----------------14------------------14-14------|
D|----|-REST-|-----------|------17----17----------17-17-------17----------15----15-15------15-15-------15---|
A|3~--|6 bars|---12-12-12|15-15----------15-14-14----------------14-12-12-------------12-12---------------14|
D|----|------|-----------|----------------------------------------------------------------------------------|

                                              
G|-----|------|------|---------------------------------------------------------------------------------------|
D|-----|-REST-|------|---------------------------------------------------------------------------------------|
A|15~--|6 bars|----15|17-17-17-17-17-17-17-17--17-15-15-15-15-15-15-14--15-15-15-15-15-14-14-14--14-15-15-15-|
D|-----|------|------|---------------------------------------------------------------------------------------|

G|----------------------------------------------------------------------17---------------------17------------|
D|-15-14-15-15-15-17-17-17-17-17-17-17-17-15-15-15-15-15-15-14-15-15-15------15-15-14-15-15-15------15-15----|
D|--------------------------------------------------------------------------------------------------------15\|
D|-----------------------------------------------------------------------------------------------------------|

[Outro}
G|-----------------------------------------------------------------|
D|-----------------------------------------------------------------| x3
A|8-8-8-8-8-8-8-8-7-7-7-7-7-7-7-7-0-0-0-0-0-3-3-3-3---------3-3-3/-|
D|--------------------------------------------------3-3-3-3--------|

G|----------------------------------------------------------------------|
D|----------------------------------------------------------------------|
A|8-8-8-8-8-8-8-8-7-7-7-7-7-7-7-7-0-0-0-12---0-0-12---0-0-12---12-12-12-|
D|----------------------------------------------------------------------|

G|----------------|-----------------|----------------|---------------|    |------|
D|----------------|-----------------|----------------|---------------| x4 |------|
A|5-5-5-5-5-5-5-5-|-7-7-7-7-7-7-7-7-|7-8-8-8-8-0-0-0-|0-0-0-0-8-8-7-7|    |5~----|
D|----------------|-----------------|----------------|---------------|    |------| 

***********************************

| x   Dead note
| /   Slide-up
| \   Slide-down
| ~   Vibrato
| .   Staccato

***********************************
Suggest correction
Creating personal tab
Creating personal tab
You can edit any tab online and save it as your Personal.

You can edit, replace or remove any tab part or add personal notes – all changes will be seen only by you.

Personal tabs can be accessed anytime from any device, even offline.
Learn more »
Give kudos to tab author, rate the tab!
1 2 3 4 5
comments
print report bad tab
guest
You may want to rate the tab now too:
select rating
Wanna post a correction for this tab? Suggest correction