Oops, an error
Loading. Please wait.

Public Pervert Tab

version 1
version 1

Whole song

Interactive

26,207 views 21 this week
3 commentsread comments
1 2 3 4 5
x 13
add to favorites
×
Save as Personal and add changes to this tab that will be seen only by you. Learn more ›
×
You can save this tab as Personal to edit and correct it or add notes. All changes will be seen only by you. Learn more »
save as personal
new!
launch autoscroll
font size
0
reset
how to read this tab
guitar tuner
backing track
0:00
0:00
Autoscroll
slow
fast
+/-
esc
set tempo
stop
Author
Title: Public Pervert
Band: Interpol
Album: Antics
Tuning: Standard
Tabbing by: Sean Konagaya


(0:01)
Guitar1             Guitar2
|-------------------|------------------|
|-------------------|--10--1010--1010--|
|-------------------|--10--1010--1010--|
|-------------------|--10--1010--1010--|
|--87--8-----87--8--|------------------|
|-------------------|------------------|

Guitar1      Guitar2
|------------|--------------------------|
|------------|--8---8-8---8-8-----------|
|------------|--9---9-9---9-9-----------|
|----------—-|--10--1010--1010----------|
|--88-77-88--|--------------------------|
|------------|--------------------------|

Guitar1      Guitar2
|------------|------------------|
|------------|--10--1010--1010--|
|------------|--10--1010--1010--|
|----------—-|--10--1010--1010--|
|--88-77-88--|------------------|
|------------|------------------|

Guitar1      Guitar2
|------------|--------------------------|
|------------|--8---8-8---8-8-----------|
|------------|--9---9-9---9-9-----------|
|----------—-|--10--1010--1010----------|
|--88-77-88--|--------------------------|
|------------|--------------------------|

Guitar1      Guitar2
|------------|------------------|
|------------|--10--1010--1010--|
|------------|--10--1010--1010--|
|------------|--10--1010—-1010--|
|--55-77-88--|------------------|
|------------|------------------|

Guitar1      Guitar2
|------------|--------------------------|
|------------|--8---8-8---8-8-----------|
|------------|--9---9-9---9-9-----------|
|----------—-|--10--1010--1010----------|
|--88-77-88--|--------------------------|
|------------|--------------------------|

Guitar1      Guitar2
|------------|------------------|
|------------|--10--1010--1010--|
|------------|--10--1010--1010--|
|------------|--10--1010--1010--|
|--88-77-88--|------------------|
|------------|------------------|

Guitar1      Guitar2
|------------|--------------------------|
|------------|--8---8-8---8-8-----------|
|------------|--9---9-9---9-9-----------|
|----------—-|--10--1010--1010----------|
|--88-77-88--|--------------------------|
|------------|--------------------------|


(0:42)
Guitar1
|--------------------------|-
|--------------------------| |
|--------------------------| |
|--------------------------| |
|--8/10-8—-55-555-55-------| |
|--------------------------| |
Guitar2                      |-Synchronized 
|--------------------------| |
|------------------13------| |
|------------------14------| |
|------------------15------| |
|--------------------------| |
|--------------------------|-

|-------------|-
|-------------| |
|-------------| |
|-------------| |
|--00-000-00--| |
|-------------| |
                |-Synchronized
|-------------| |
|----------8--| |
|----------9--| |
|----------10-| |
|-------------| |
|-------------|-


(0:52)
Guitar1
|----------|
|----------|
|----------|
|----------|
|--8/10-8—-|
|----------|

Guitar 1 and 2
|-----------------------------------------|
|-----------------------------------------|
|-----------------------------------------|
|--33333333-222-55555-----33333-77777777--|
|--11111111-000-33333-555-11111-55555555--|
|---------------------333-----------------|

Guitar2
|-----------------------------------------|-
|-----------------------------------------| |
|-----------------------------------------| |
|--33333333-222-55555-----33333-77777777--| |
|--11111111-000-33333-555-11111-55555555--| |
|---------------------333-----------------| |
                                            |
Guitar1                                     |
|-----------------------------------------| |
|-----------------------------------------| |
|-----------------------------------------| |
|-----------------------------------------| |-syn. X2
|--88888888-777-101010101010101010101010--| |
|-----------------------------------------| |
                                            |
|-----------------------------------------| |
|-----------------------------------------| |
|-----------------------------------------| |
|-----------------------------------------| |
|--55555555-------------------------------| |
|-----------------------------------------|-


(1:22)
Guitar1             Guitar2
|---------|------------------------------|
|---------|--10--1010--1010---10---10—---|
|---------|--10--1010--1010-10---10--10--|
|---------|--10--1010--1010--------------|
|--87--8--|------------------------------|
|---------|------------------------------|

Guitar1      Guitar2
|------------|-------------------------|
|------------|--8---8-8---8-8---8--8---|
|------------|--9---9-9---9-9--9--9-9--|
|----------—-|--10--1010--1010---------|
|--88-77-88--|-------------------------|
|------------|-------------------------|

Guitar1             Guitar2
|------------|------------------------------|
|------------|--10--1010--1010---10---10—---|
|------------|--10--1010--1010-10---10--10--|
|------------|--10--1010--1010--------------|
|--88-77-88--|------------------------------|
|------------|------------------------------|

Guitar1      Guitar2
|------------|------------------|
|------------|--8---8-8---8-8---|
|------------|--9---9-9---9-9---|
|----------—-|--10--1010--1010--|
|--88-77-88--|------------------|
|------------|------------------|

(1:44)
Guitar1
|--------------------------|-
|--------------------------| |
|--------------------------| |
|--------------------------| |
|--8/10-8—-55-555-55-------| |
|--------------------------| |
Guitar2                      |-Synchronized 
|--------------------------| |
|------------------13------| |
|------------------14------| |
|------------------15------| |
|--------------------------| |
|--------------------------|-

|-------------|-
|-------------| |
|-------------| |
|-------------| |
|--00-000-00--| |
|-------------| |
                |-Synchronized
|-------------| |
|----------8--| |
|----------9--| |
|----------10-| |
|-------------| |
|-------------|-

(1:54)
Guitar1
|----------|
|----------|
|----------|
|----------|
|--8/10-8—-|
|----------|

Guitar 1 and 2
|-----------------------------------------|
|-----------------------------------------|
|-----------------------------------------|
|--33333333-222-55555-----33333-77777777--|
|--11111111-000-33333-555-11111-55555555--|
|---------------------333-----------------|

Guitar2
|-----------------------------------------|-
|-----------------------------------------| |
|-----------------------------------------| |
|--33333333-222-55555-----33333-77777777--| |
|--11111111-000-33333-555-11111-55555555--| |
|---------------------333-----------------| |
                                            |
Guitar1                                     |
|-----------------------------------------| |
|-----------------------------------------| |
|-----------------------------------------| |
|-----------------------------------------| |-syn. X3
|--88888888-777-101010101010101010101010--| |
|-----------------------------------------| |
                                            |
|-----------------------------------------| |
|-----------------------------------------| |
|-----------------------------------------| |
|-----------------------------------------| |
|--55555555-------------------------------| |
|-----------------------------------------|-

(2:35)
Guitar1
|------------------|
|------------------|
|------------------|
|------------------|
|--8---7---10---5--|
|------------------|

Guitar1
|------------------|
|------------------|
|------------------|
|------------------|
|--8---7---10---5b-|
|------------------|


Bass and drums goes on for a bit


(3:13)
Guitar2
|---------------------------|-
|---------------------------| |
|--101010101010101010101010-| |
|---------------------------| |
|---------------------------| |
|---------------------------| |
Guitar1                       |-syn.
|---------------------------| |
|---------------------------| |
|---------------------------| |
|---------------------------| |
|--888888-77-10101010-5555--| |
|---------------------------|-
(Note: every note is play as sixteenth notes.)

Guitar2
|---------------------------|-
|---------------------------| |
|--9/SlideSlowlyNearEnd/18--| |
|---------------------------| |
|---------------------------| |
|---------------------------| |
Guitar1                       |-syn.
|---------------------------| |
|---------------------------| |
|---------------------------| |
|---------------------------| |
|--888888-77-10101010-5555--| |
|---------------------------|-
(Note: every note is play as sixteenth notes.)

Guitar2
|-----------------------------------|-
|--15--1515--1515--1515-------------| |
|--14--1412--1212--1212-------------| |
|--------------15--1512-------------| |
|-----------------------------------| |
|-----------------------------------| |
Guitar1                               |-syn.
|-----------------------------------| |
|-----------------------------------| |
|--101010101010-99-12121212-7777----| |
|-----------------------------------| |
|-----------------------------------| |
|-----------------------------------|-
(Note: every note is play as sixteenth notes.)

Guitar2
|-----------------------------------|-
|--15--1515--1515--1515-------------| |
|--14--1412--1212--1212-------------| |
|--------------15--1512-------------| |
|-----------------------------------| |
|-----------------------------------| |
Guitar1                               |-syn.
|-----------------------------------| |
|-----------------------------------| |
|--101010101010-99-121212-14-7777---| |
|-----------------------------------| |
|-----------------------------------| |
|-----------------------------------|-
(Note: every note is play as sixteenth notes.)

(3:50)
Guitar1
|-----------------------------------------|
|-----------8-----------------------------|
|--7-9-10-9---10-9-10-9-7-----------------|
|---7-7--7-7-7--7-7-----------------------|
|-----------------------------------------|
|-----------------------------------------|

Guitar1
|-----------------------------------------|
|-----------8------10---------------------|
|--7-9-10-9---10-9------------------------|
|---7-7--7-7-7--7-7-----------------------|
|-----------------------------------------|
|-----------------------------------------|

(4:00)
Guitar1
|--------------------------|-
|-----------8--------------| |
|--7-9-10-9---10-9-10-9-7--| |
|---7-7--7-7-7--7-7--------| |
|--------------------------| |
|--------------------------| |
                             |
|--------------------------| |
|-----------8------10------| |
|--7-9-10-9---10-9---------| |
|---7-7--7-7-7--7-7--------| |
|--------------------------| |
|--------------------------| |
                             |-Syc. 3x
                             |
Guitar2                      |
|--------------------------| |
|--------------------------| |
|--977-977-97-977-977-97---| |
|--------------------------| |
|--------------------------| |
|--------------------------| |
                             |
|--------------------------| |
|--------------------------| |
|--977-977-97-977-977-97---| |
|--------------------------| |
|--------------------------| |
|--------------------------|-

Comments? MeeCexii@hotmail.com
Suggest correction
comments
print report bad tab
3 comments total.
0 reply
UnsignedRecords 767 Dec 22, 2004 07:00 PM

i find this tab perfectly done, nice job

0 reply
bluefridays 10 Jan 28, 2006 12:53 AM

very good

0 reply
Goad 4,836 Oct 11, 2009 08:19 PM

perfect! awesome tab

guest
You may want to rate the tab now too:
select rating
Wanna post a correction for this tab? Suggest correction