Oops, an error
Loading. Please wait.
We have an official Rest My Chemistry tab made by UG professional guitarists. Check out the tab »
×
98,720 views 144 this week
8 commentsread comments
1 2 3 4 5
x 32
add to favorites
×
Save as Personal and add changes to this tab that will be seen only by you. Learn more ›
×
You can save this tab as Personal to edit and correct it or add notes. All changes will be seen only by you. Learn more »
launch autoscroll
font size
0
reset
how to read this tab
guitar tuner
backing track
0:00
0:00
edit
Autoscroll
slow
fast
+/-
esc
set tempo
stop
Author
This is my version of Rest My Chemistry.

I've gotten to know the way Daniel writes, so I'm almost certain this is accurate.


Guitar 1 (Daniel)

e|----------------------------------7-7-7-7-7-----------------------|
B|---7x-7---------------------------7-7h8h7-7-----------------------|
G|---7x-9--7-7----------------------7-7-7-7-7-----------------------|
D|---9x-9--9-9slide12slide9----9x9--9-9-9-9-9-----------------------|
A|--10x10--9-9slide12slide9----7x7--7-7-7-7-7-----------------------|
E|------------------------------------------------------------------|

Main lead goes:

e|------7---------7--------7----7-----7----------|
B|---8----8--7--7---7--10----10---8-8---8--------|
G|-----------------------------------------------|
D|-----------------------------------------------|
A|-----------------------------------------------|
E|-----------------------------------------------|

Other lead at 2:37 and 3:34 goes:

 Guitar 1 (Daniel)
e|-----------------------------------------------------------------------------|
B|---8-8-8-8-12-12-12-12--8-8-8-8-10-10-10-8-7-7-7-7-12-12-12-12---------------|
G|-----------------------------------------------------------------------------|
D|-----------------------------------------------------------------------------|
A|-----------------------------------------------------------------------------|
E|-----------------------------------------------------------------------------|

e|----------------------------|
B|---8-8-8-8-10-10-10-10------|
G|----------------------------|
D|----------------------------|
A|----------------------------|
E|----------------------------|

 Then tremolo pick these:
e|--------------------------------------------------------------------|
B|-s12~~~~~~s14~~~~~~s15~~~~~~~s17~~~~~~~~----------------------------|
G|--------------------------------------------------------------------|
D|--------------------------------------------------------------------|
A|--------------------------------------------------------------------|
E|--------------------------------------------------------------------|

 Same part, enter Paul's guitar, also tremolo picking at 2:48, right before Daniel stars
 picking:
e|------------------------------------------------------------|
B|------------------------------------------------------------|
G|---7~~~~~~s6~~~~~~s4~~~~~~~~~7~~~~~~s9~~~~~~s6~~~~~s4~~~~~--|
D|------------------------------------------------------------|
A|------------------------------------------------------------|
E|------------------------------------------------------------|

 At 3:34 you'll encounter the same lead, where Daniel plays:
 Guitar 1 (Daniel)
e|----------------------------------------------------------------|
B|---8-8-8-8-12-12-12-12--8-8-8-8-10-10-10-8-7-7-7-7-12-12-12-12--|
G|----------------------------------------------------------------|
D|----------------------------------------------------------------|
A|----------------------------------------------------------------|
E|----------------------------------------------------------------| PLAY x2 SECOND TIME AROUND

e|------------------------------------|
B|---8-8-8-8-14-14-14-14-14-14-15-15--|
G|------------------------------------|
D|------------------------------------|
A|------------------------------------|
E|------------------------------------|

Besides that, the chords remain the same, and the lead is the same. Just repeated, a
The order is simple, strumming pattern is simple. Daniel does this thing where he'll strum
strings muted and the rest at 0 at the end of the main progression of chords, he does
in a lot of songs, so don't be confused if you hear it. Just watch a live video on
Good luck, more tabs to come soon.

-Harris



************************************

| x  Dead note
| h  Hammer-on
| ~  Vibrato
| s  slide 

************************************

            
            
Suggest correction
Creating personal tab
Creating personal tab
You can edit any tab online and save it as your Personal.

You can edit, replace or remove any tab part or add personal notes – all changes will be seen only by you.

Personal tabs can be accessed anytime from any device, even offline.
Learn more »
comments
print report bad tab
8 comments total. Showing first comments.
0 reply
keneticshark24 135 Jun 27, 2007 05:11 PM

Haha, saw that on the forums. Sweet job, dude.

0 reply
The_alchemist 75 Jul 11, 2007 10:02 AM

7-7
7-8

0 reply
The_alchemist 75 Jul 11, 2007 10:02 AM

e----------------------------------7-7---7---7-7-----------------------|
B---7x-7---------------------------7-7-((8))-7-7------------------------|
G---7x-9--7-7----------------------7-7---7---7-7-------------------------|
D---9x-9--9-9slide12slide9----9x9--9-9---9---9-9---------------------------|
A--10x10--9-9slide12slide9----7x7--7-7---7---7-7----------------------------|
E-----------------------------------------------------------------------|

guest
You may want to rate the tab now too:
select rating
Wanna post a correction for this tab? Suggest correction