Oops, an error
Loading. Please wait.

Roland Bass

version 1
version 1

Whole song

Interactive

4,793 views 3 this week
no commentswrite comment
1 2 3 4 5
x 4
add to favorites
×
Save as Personal and add changes to this tab that will be seen only by you. Learn more ›
×
You can save this tab as Personal to edit and correct it or add notes. All changes will be seen only by you. Learn more »
save as personal
new!
launch autoscroll
font size
0
reset
guitar tuner
backing track
0:00
0:00
Autoscroll
slow
fast
+/-
esc
set tempo
stop
Author
Tuning
Interpol
Roland

It's possible the bridge solo isn't there...
Carlos is playing high on the G string.
Notes he uses are G A F# E D C B.

Intro x1
G|-----------------------------------------------------------|
D|-999-9-9-99910-101010-99910-101010-1010109-999-1010109-999-|
A|-----------------------------------------------------------|
D|-----------------------------------------------------------|

x1
G|---------------------------------------------------|
D|-99910-101010-99910-101010-1010109-999-10----------|
A|---------------------------------------------------|
D|------------------------------------------22222222-|

Verse
G|-----------------------------------|
D|-----------------------------------|
A|-3333333333333333-7777777777777777-|
D|-----------------------------------|

G|-----------------------------------|
D|-----------------------------------|
A|-3333333333333333-77777777---------|
D|--------------------------22222222-|

G|-----------------------------------|
D|-----------------------------------|
A|-3333333333333333-7777777777777777-|
D|-----------------------------------|

G|---------------------------------------------------|
D|---------------------------------------------------|
A|-3333333333333333-22222222/14-14-14-14-14-14-14-14-|
D|---------------------------------------------------|

Chorus x1
G|-----------------------------------------------|
D|-----------------------------------------------|
A|-----------------------------------------------|
D|-55555555-44444444-222-121212-99-222-121212-99-|

x1
G|-------------------------------------777----|
D|-----------------------------------------99-|
A|--------------------------------------------|
D|-55555555-44444444-222-121212-99-222--------|

x1
G|-----------------------------------------------|
D|-----------------------------------------------|
A|-----------------------------------------------|
D|-55555555-44444444-222-121212-99-222-121212-99-|

x1
G|----------------------------------------|
D|----------------------------------------|
A|----------------------------------------|
D|-55555555-44444444-777777777777-9999-10-|

(rest)

Intro x1
G|-99999999----------|
D|-------------------|
A|-------------------|
D|----------22222222-|

Verse

Chorus x1
G|-----------------------------------------------|
D|-----------------------------------------------|
A|-----------------------------------------------|
D|-55555555-44444444-222-121212-99-222-121212-99-|

x1
G|-----------------------------------------------|
D|-------------------------------------121212-99-|
A|-----------------------------------------------|
D|-55555555-44444444-222-121212-99-222-----------|

x1
G|-----------------------------------------------|
D|-----------------------------------------------|
A|-----------------------------------------------|
D|-55555555-44444444-222-121212-99-222-121212-99-|

x1
G|-------------------------------------|
D|-------------------------------------|
A|-------------------------------------|
D|-55555555-44444444/777777777777/9999-|

x1
G|-----------------------------------------|
D|-----------------------------------------|
A|-----------------------------------------|
D|-55555555-77777777/999999999999/12121212-|

Solo (2:30-2:57)

G|-12--12--121212--11--11--11--1111-12-14--14--14-12-11------------111111---
D|------------------------------------------------------14--14--14----------
A|--------------------------------------------------------------------------
D|--------------------------------------------------------------------------

G|-12--12--121212--11--11--11--1111-12-14--14--14-12-11-------------
D|------------------------------------------------------14--14--14--
A|------------------------------------------------------------------
D|------------------------------------------------------------------

x2
G|----------------------------------------------------------------
D|-12-12-12-12h14-141414141414-121212121212121212-10101010-99999--
A|----------------------------------------------------------------
D|----------------------------------------------------------------

Outro x3
G|------------------------------------------------------|
D|------------------------------------------------------|
A|------------------------------------------------------|
D|-10101010101010101010101010101010-22222222222222/5/7/-|

x1
G|--------------------------------------------------------|
D|--------------------------------------------------------|
A|--------------------------------------------------------|
D|-10101010101010101010101010101010-555555555555-55-77-10-|
Suggest correction
comments
print report bad tab
guest
You may want to rate the tab now too:
select rating
Wanna post a correction for this tab? Suggest correction