Oops, an error
Loading. Please wait.

Song Seven Tab

version 2
version 2

Whole song

Interactive

8,712 views 21 this week
no commentswrite comment
1 2 3 4 5
x 4
add to favorites
×
Save as Personal and add changes to this tab that will be seen only by you. Learn more ›
×
You can save this tab as Personal to edit and correct it or add notes. All changes will be seen only by you. Learn more »
save as personal
new!
launch autoscroll
font size
0
reset
how to read this tab
guitar tuner
Autoscroll
slow
fast
+/-
esc
set tempo
stop
			Interpol - Song Seven (Precipitate EP)	     

Tabbed by: Jascha

Tuning: standart

Intro

Guitar 1 

e|---------------------------------------------------------------------------|
B|---------------------------------------------------------------------------|
G|16----16----16----16----16----16----16-14~-14------------------------------|
D|---------------------------------------------------------------------------|
A|14-14-14-14-14-14-14-14-14-14-14-14-14-12~-12------------------------------|
E|---------------------------------------------------------------------------|

Guitar 2

e|2-2-2-2-2-2-2-2-3-3-3-3-3-3-3-3-2-2-2-2-2-2-2-2-3-3-3-3-3-3-3-3------------|
B|5-5-5-5-5-5-5-5-5-5-5-5-5-5-5-5-3-3-3-3-3-3-3-3-3-3-3-3-3-3-3-3------------|
G|---------------------------------------------------------------------------|
D|---------------------------------------------------------------------------|
A|---------------------------------------------------------------------------|
E|---------------------------------------------------------------------------|

Part 1

Guitar 1 
							
e|---------------------------------------------------------------------------|
B|---------------------------------------------------------------------------|
G|16-16-16-16-16-16-16-16-16-16-16-16-16-14-14-14----------------------------|
D|---------------------------------------------------------------------------|
A|14-14-14-14-14-14-14-14-14-14-14-14-14-12-12-12----------------------------|
E|---------------------------------------------------------------------------|

You come at the right time/You`ve come in singing

e|---------------------------------------------------------------------------|
B|------17-17-17-17-17-17----------------------------------------------------|
G|16-16-16-16-16-16-16-16-16-16-16-16-16-14-14-14----------------------------|
D|---------------------------------------------------------------------------|
A|14-14-14-14-14-14-14-14-14-14-14-14-14-12-12-12----------------------------|
E|---------------------------------------------------------------------------|

Guitar 2

e|2-2-2-2-2-2-2-2-3-3-3-3-3-3-3-3-2-2-2-2-2-2-2-2-3-3-3-3-3-3-3-3------------|
B|5-5-5-5-5-5-5-5-5-5-5-5-5-5-5-5-3-3-3-3-3-3-3-3-3-3-3-3-3-3-3-3------------|
G|---------------------------------------------------------------------------|
D|---------------------------------------------------------------------------|
A|---------------------------------------------------------------------------|
E|---------------------------------------------------------------------------|

Part 2

Guitar 1

e|------------------------------------------------------------------------------------------------|
B|------------------------------------------------------------------------------------------------|
G|16-16-16-16-16-16-16-16-16-16-16-16-16-16-16-16-16-16-16-16-16-16-16-16-14-14-14-14-14-14-14-14-|
D|------------------------------------------------------------------------------------------------|
A|14-14-14-14-14-14-14-14-14-14-14-14-14-14-14-14-14-14-14-14-14-14-14-14-12-12-12-12-12-12-12-12-|
E|------------------------------------------------------------------------------------------------|

Guitar 2

e|------------------------------------------------------------------------------------------------|
B|------------------------------------------------------------------------------------------------|
G|12-12-12-12-12-12-12-12-12-12-12-12-12-12-12-12-11-11-11-11-11-11-11-11-11-11-11-11-11-11-11-11-|
D|------------------------------------------------------------------------------------------------|
A|10-10-10-10-10-10-10-10-10-10-10-10-10-10-10-10--9--9--9--9--9--9--9--9--9--9--9--9--9--9--9--9-|
E|------------------------------------------------------------------------------------------------|

Guitar 1

e|---------------------------------------------------------------------------|
B|---------------------------------------------------------------------------|
G|16----16----16----16----16----16----16-14~-14------------------------------|
D|---------------------------------------------------------------------------|
A|14-14-14-14-14-14-14-14-14-14-14-14-14-12~-12------------------------------|
E|---------------------------------------------------------------------------|

Guitar 2

e|---------------------------------------------------------------------------|
B|---------------------------------------------------------------------------|
G|11-11-11-11-11-11-11-11-11-12-12-12-12-12-12-12----------------------------|
D|---------------------------------------------------------------------------|
A|-9--9--9--9--9--9--9--9--9-10-10-10-10-10-10-10----------------------------|
E|---------------------------------------------------------------------------|

Guitar 1

e|------------------------------------------------------------------------------------------------|
B|------------------------------------------------------------------------------------------------|
G|16-16-16-16-16-16-16-16-16-16-16-16-16-16-16-16-16-16-16-16-16-16-16-16-14-14-14-14-14-14-14-14-|
D|------------------------------------------------------------------------------------------------|
A|14-14-14-14-14-14-14-14-14-14-14-14-14-14-14-14-14-14-14-14-14-14-14-14-12-12-12-12-12-12-12-12-|
E|------------------------------------------------------------------------------------------------|

Guitar 2

e|------------------------------------------------------------------------------------------------|
B|------------------------------------------------------------------------------------------------|
G|12-12-12-12-12-12-12-12-12-12-12-12-12-12-12-12-11-11-11-11-11-11-11-11-11-11-11-11-11-11-11-11-|
D|------------------------------------------------------------------------------------------------|
A|10-10-10-10-10-10-10-10-10-10-10-10-10-10-10-10--9--9--9--9--9--9--9--9--9--9--9--9--9--9--9--9-|
E|------------------------------------------------------------------------------------------------|

Part 3

Guitar 1

confrontation complication leads...

e|--2-3-2---2-3-2------------------------------------------------------------|
B|---------------------------------------------------------------------------|
G|4-------4------------------------------------------------------------------|
D|---------------------------------------------------------------------------|
A|---------------------------------------------------------------------------|
E|---------------------------------------------------------------------------|

Guitar 2

e|2-2-2-2-2-2-2-2-3-3-3-3-3-3-3-3-2-2-2-2-2-2-2-2-2-3-3-3-3-3-3-3------------|
B|5-5-5-5-5-5-5-5-5-5-5-5-5-5-5-5-3-3-3-3-3-3-3-3-3-3-3-3-3-3-3-3------------|
G|---------------------------------------------------------------------------|
D|---------------------------------------------------------------------------|
A|---------------------------------------------------------------------------|
E|---------------------------------------------------------------------------|

Part 4

Guitar 1

e|---------------------------------------------------------------------------|
B|--7-----7-----7-----7-----7---7---7---7------------------------------------|
G|------------------------7---7---7---7---7----------------------------------|
D|9---9-9---9-9---9-9---9----------------------------------------------------|
A|---------------------------------------------------------------------------|
E|---------------------------------------------------------------------------|

Guitar 2

e|-------------------------------------------------------------------------------------|
B|-------------------------------------------------------------------------------------|
G|-------------------------------------------------------------14-12-------------------|
D|-------------------------------------------------------------------------------------|
A|9-7-9-7-9-7-2-12-10-9-7-9-7-9-7-2-12-10-21-19-21-19-21-19-14-------21-16-19-17-14-16-|
E|-------------------------------------------------------------------------------------|

e|---------------------------------------------------------------------------|
B|---------------------------------------------------------------------------|
G|14-12-11-12-14-12-11-9-14-12-11-12-14-12-11--------------------------------|
D|---------------------------------------------------------------------------|
A|---------------------------------------------------------------------------|
E|---------------------------------------------------------------------------|

Part 5

Guitar 1

e|---------------------------------------------------------------------------|
B|---------------------------------------------------------------------------|
G|11-11-11-11-11-11-11-11-11-11-12-12-12-12-12-12-12-------------------------|
D|---------------------------------------------------------------------------|
A|-9--9--9--9--9--9--9--9--9--9-10-10-10-10-10-10-10-------------------------|
E|---------------------------------------------------------------------------|

Guitar 2

e|---------------------------------------------------------------------------|
B|---------------------------------------------------------------------------|
G|11-11-11-11-11-11-11-11-11-11-12-12-12-12-12-12-12-------------------------|
D|---------------------------------------------------------------------------|
A|-9--9--9--9--9--9--9--9--9--9-10-10-10-10-10-10-10-------------------------|
E|---------------------------------------------------------------------------|

Part 6

Guitar 1

e|---------------------------------------------------------------------------|
B|---------------------------------------------------------------------------|
G|11-11-11-11-11-11-11-11-11-11-12-12-12-12-12-12-12-------------------------|
D|---------------------------------------------------------------------------|
A|-9--9--9--9--9--9--9--9--9--9-10-10-10-10-10-10-10-------------------------|
E|---------------------------------------------------------------------------|

Guitar 2

e|---------------------------------------------------------------------------|
B|---------------------------------------------------------------------------|
G|16-16-16-16-16-16-16-16-16-16-16-16-16-16-16-16-16-------------------------|
D|---------------------------------------------------------------------------|
A|---------------------------------------------------------------------------|
E|---------------------------------------------------------------------------|

End

Guitar 1

e|------------------------------------------------------------------------------------------------|
B|-0--0--0--0--0--0--0--0--0--0--0--0--0--0--0--0--0--0--0--0--0--0--0--0--0--0--0--0--0--0--0--0-|
G|16-16-16-16-16-16-16-16-16-16-16-16-16-16-16-16\14-14-14-16-16-16-16-16-14-14-14-16-16-16-16-14/|
D|------------------------------------------------------------------------------------------------|
A|------------------------------------------------------------------------------------------------|
E|------------------------------------------------------------------------------------------------|

Guitar 2

e|-----------------------------|
B|-----------------------------|
G|14-12-11-9/11-9/11-12--------|
D|-----------------------------|
A|-----------------------------|
E|-----------------------------|
Suggest correction
comments
print report bad tab
guest
Wanna post a correction for this tab? Suggest correction