Oops, an error
Loading. Please wait.

Success Tab

9,906 views 1 this week
no commentswrite comment
1 2 3 4 5
accurate
x 3
add to favorites
launch autoscroll
font size
0
reset
how to read this tab
guitar tuner
Autoscroll
slow
fast
+/-
esc
set tempo
stop
Help us to improve Ultimate-Guitar.com Take our survey!
×
SUCCESS

INTRO/VERSE/CHORUS

daniel: ()= fourth time played
|----------------------------------------------|
|----------------------------------------------|
|----------------------------------------------|
|----------------------------------------------|
|----------------------------------------------| 
|--12-12-1212-7-7-77-10-10-1010-3-3-33-(3-3-33)|

piano
|----------------------------------------------|
|--10~----------------8~-----------------------|
|-------------9~-------------------------------|
|-------------------------------9~-------------|
|----------------------------------------------|
|----------------------------------------------|


Dreams of long life,
What safety can you find,
See the great unknown,
That shakes from, from us.

Goodbye,
I'm the good guy.


VERSE

daniel:
|--------------------------------------------|
|--------------------------------------------|
|--------------------------------------------|
|--------------------------------------------|
|--------------------------------------------|
|--12-12-1212-7-7-77-10-10-1010-3-3-33-------|

last time
|------------------------------------------------|
|------------------------------------------------|
|--------------------------------------4-4-5555--|
|------------------------------------------------|
|------------------------------------------------|
|--12-12-1212-7-7-77-10-10-1010-3-3-33-3-3-33----|

paul:
|--17-19------17-19------17-19-------17-19---|
|--------------------------------------------|
|--------------------------------------------|
|--------------------------------------------|
|--------------------------------------------|
|--------------------------------------------|

Dreams of long life,
What safety can you find,
If the secrets that strong,
Maybe we had, maybe we had to fly.


PRE-CHORUS

daniel: () hit sometimes listen to rhythm
|--------------------------------------------|
|--------------------------------------------|
|--14-14-1414-9-9-99-12-12-1212-4-4-44-(5-4)-|
|--------------------------------------------|
|--------------------------------------------|
|--12-12-1212-7-7-77-10-10-1010-3-3-33-(3-3)-|

paul:
|--17----------------------------------------|
|--------------------------------------------| just hits ones
|--------------------------------------------|
|--------------------------------------------|
|--------------------------------------------|
|--------------------------------------------|

was a good try
im the good guy.


VERSE

daniel: () hit sometimes listen to rhythm
|--------------------------------------------|
|--------------------------------------------|
|--14-14-1414-9-9-99-12-12-1212-4-4-44-(5-4)-|
|--------------------------------------------|
|--------------------------------------------|
|--12-12-1212-7-7-77-10-10-1010-3-3-33-(3-3)-|

paul
|--------------------------------------------|
|--------------------------------------------|
|--99999999----------7777777777777777--------|
|-----------99999999-------------------------|
|--------------------------------------------|
|--------------------------------------------|

As high as the day,
I read the papers.
Before crime would pay,
Id have to bury most things.


CHORUS

daniel:
|--------------------------------------------|
|--------------------------------------------|
|--9--9---99----------7--7---77--------------|
|--------------------------------------------|
|--------------------------------------------|
|--7--7---77----------5--5---55--------------|

paul:all tremolo (or just hit ones with rhythm)
|--------------------------------------------|
|--77788877788877777777777777----------------|
|--------------------------------------------|
|--------------------------------------------|
|--------------------------------------------|
|--------------------------------------------|
I have succeeded,


daniel:
|--------------------------------------------|
|--------------------------------------------|
|--12--12---1212-----------5--5---55---------|
|--------------------------------------------|
|--------------------------------------------|
|--10--10---1010-----------3--3---33---------|

paul
|--------------------------------------------|
|--777888777888777---------------------------|
|------------------444444444444444-----------|
|--------------------------------------------|
|--------------------------------------------|
|--------------------------------------------|
I won't compete for long,


daniel:
|--------------------------------------------|
|--------------------------------------------|
|--12--12---1212-----------5--5---55---------|
|--------------------------------------------|
|--------------------------------------------|
|--10--10---1010-----------3--3---33---------|

paul
|--------------------------------------------|
|--777888777888777--------3333333------------|
|------------------444444--------------------|
|--------------------------------------------|
|--------------------------------------------|
|--------------------------------------------|
I'm not suppost to show you,


daniel:
|--------------------------------------------|
|--------------------------------------------|
|--9--9---99----------7--7---77--------------|
|--------------------------------------------|
|--------------------------------------------|
|--7--7---77----------5--5---55--------------|

paul
|--------------------------------------------|
|--77788877788877777777777777----------------|
|--------------------------------------------|
|--------------------------------------------|
|--------------------------------------------|
|--------------------------------------------|
I've got some secrets,


daniel:
|--------------------------------------------|
|--------------------------------------------|
|--12--12---1212-----------5--5---55---------|
|--------------------------------------------|
|--------------------------------------------|
|--10--10---1010-----------3--3---33---------|

paul:
|--------------------------------------------|
|--777888777888777---------------------------|
|------------------444444444444444-----------|
|--------------------------------------------|
|--------------------------------------------|
|--------------------------------------------|
But i've only told one.


daniel:
|--------------------------------------------|
|--------------------------------------------|
|--12--12---1212----------12--12---1212------|
|--------------------------------------------|
|--------------------------------------------|
|--10--10---1010----------10--10---1010------|

paul:
|--------------------------------------------|
|--777888777888777---------------------------|
|------------------4~------------------------|
|--------------------------------------------|
|--------------------------------------------|
|--------------------------------------------|


VERSE
(both same as "high as the..." part)

Dreams of long life,
What safety can you buy,
If the sea is that strong,
Maybe we had, maybe we had to find.

Somebody made me say, No no,
Somebody made me say, No no,
Somebody made me say, No no,
Somebody make me say, No no,


CHORUS

I have succeeded,
I won't compete for long,
I'm not suppost to show you,
I've got some secrets,
But i've only told one.


I'm not suppost...

END starts

daniel:
|---------------------------------------------------------------------------|
|---------------------------------------------------------------------------|
|-555555555-99999999-777777777-12121212121212121212-55555555-12121212121212-|
|---------------------------------------------------------------------------|
|---------------------------------------------------------------------------|
|-333333333-77777777-555555555-10101010101010101010-33333333-10101010101010-|

end on G

paul
|--------------------------------------------|
|------7777-8888------7777------7777-8888----|
|-9999-----------9999------9999--------------|
|--------------------------------------------|
|--------------------------------------------|
|--------------------------------------------|

|-------------------------7777---------------|
|------7777-8888-10101010--------------------|
|-9999---------------------------------------|
|--------------------------------------------|
|--------------------------------------------|
|--------------------------------------------|

|--------------------------------------------------------7777-|
|------7777------8888------7777------7777-8888-10101010-------|
|-9999------9999------9999------9999--------------------------|
|-------------------------------------------------------------|
|-------------------------------------------------------------|
|-------------------------------------------------------------|

to show you,
I'm not suppost to show you,
I'm not suppost to,
I'm not suppost to show you,
I'm not suppost to.



Suggest correction
Give kudos to tab author, rate the tab!
1 2 3 4 5
comments
print report bad tab
guest
You may want to rate the tab now too:
select rating
Wanna post a correction for this tab? Suggest correction