Oops, an error
Loading. Please wait.

Take You On A Cruise Tab

version 1
version 1

Whole song

Interactive

25,191 views 24 this week
7 commentsread comments
1 2 3 4 5
x 12
add to favorites
×
Save as Personal and add changes to this tab that will be seen only by you. Learn more ›
×
You can save this tab as Personal to edit and correct it or add notes. All changes will be seen only by you. Learn more »
save as personal
new!
launch autoscroll
font size
0
reset
how to read this tab
guitar tuner
backing track
0:00
0:00
Autoscroll
slow
fast
+/-
esc
set tempo
stop
Interpol
Take You On a Cruise

Ahh... okay my last version mostly sucked. Here's the parts
of mine that i managed to get right joined with the guitar pro version.

Verse 

Guitar 1 (delay effect)
e|---------------------------------------|
B|---------------------------------------|
G|---------------------------------------|
D|-9~~~-7~~~-/14~~~-12~~~-(x3)-11--12~~~-|
A|---------------------------------------|
E|---------------------------------------|

Guitar 2 (light distortion) I split it so it's easier to read.
"I'm timeless like a broken watch..."
e|-------------|-------------|-----------------|---------------|
B|-7-7-x-7-x-7-|-7-7-7-7-7-x-|-8-8-8-x-x-8-x-8-|-8-8-x-x-8-8-x-|
G|-7-7-x-7-x-7-|-7-7-7-7-7-x-|-9-9-9-x-x-9-x-9-|-7-7-x-x-7-7-x-|
D|-9-9-x-9-x-9-|-7-7-9-9-7-x-|-9-9-9-x-x-9-x-9-|-9-9-x-x-9-9-x-|
A|-------------|-------------|-----------------|----------(x6)-|
E|-------------|-------------|-----------------|---------------|

Pre-Chorus

Guitar 1 (delay effect)
"Baby don't you try to find me..."
e|-------------------------|-------|
B|-------------------------|-------|
G|-------------------------|-------|
D|-14~~~-17~~~-16~~~-14~~~-|-16~~~-|
A|-------------------------|-------|
E|-------------------------|-------|

Guitar 2 (delay effect)
e|-----------------------------------------------------------------|
B|---------------------------------8---8---8---8---7---7---7---7---|
G|-7---7---7---7---6---6---6---6-----9---9---9---9---7---7---7---7-|
D|---9---9---9---9---7---7---7---7---------------------------------|
A|------------------------------------------------------------(x2)-|
E|-----------------------------------------------------------------|

e|-5---5---5---5---5---5---5---5---|
B|-7---7---7---7---7---7---7---7---|
G|---7---7---7---7---7---7---7---7-|
D|---------------------------------|
A|---------------------------------|
E|---------------------------------|

Chorus

Guitar 1 (light distortion)
"Along the way tears drown in the wake of delight..."
e|------------------------9--9--9--9--9---------------------------------|
B|-8-8-8-10-10-8-8-8-8-8-10-10-10-10-10-7-7-7-7-7-7-7-7-7-7-7-7-7-7-7-7-|
G|-9-9-9--9--9-9-9-9-9-9--9--9--9--9--9-7-7-7-7-7-7-7-7-7-7-7-7-7-7-7-7-|
D|-9-9-9--9--9-9-9-9-9-9--9--9--9--9--9-9-9-9-9-9-9-9-9-7-7-7-7-7-7-7-7-|
A|-----------------------------------------------------------------(x4)-|
E|----------------------------------------------------------------------|

Guitar 2 (light distortion)
e|-12--12--12--12--12--12--12--12--10--10--10--10--9--9--9--9-|
B|------------------------------------------------------------|
G|------------------------------------------------------------|
D|------------------------------------------------------------|
A|------------------------------------------------------------|
E|------------------------------------------------------------|

e|-12--12--12--12--12--12--12--12--10--10--10--10--9--9--14--14-|
B|--------------------------------------------------------------|
G|--------------------------------------------------------------|
D|--------------------------------------------------------------|
A|---------------------------------------------------------(x2)-|
E|--------------------------------------------------------------|

Bridge

Guitar 2 (light distortion)
e|------------------------------------------------------------------|
B|-7--7--7--7--7--7--7--7--7--7--7--7--7--7--7--7--8--8--8--8--8--8-|
G|-7--7--7--7--7--7--7--7--7--7--7--7--7--7--7--7--9--9--9--9--7--7-|
D|-9--9--9--9--9--9--9--9--9--9--9--9--7--7--7--7--9--9--9--9--9--9-|
A|------------------------------------------------------------------|
E|------------------------------------------------------------------|

Interlude

Guitar 1 (light distortion)
"I am a scavenger between the sheets of union..."
e|--------------------------------------------------------------------------|
B|-7-7-7-7-7-7-7-7-7-7-7-7-7-7-7-7-8-8-8-8-8-8-8-8-8-8-8-10-10-10-10-10-----|
G|-7-7-7-7-7-7-7-7-7-7-7-7-7-7-7-7-9-9-9-9-9-9-9-9-7-7-7--7--7--7--7--7-----|
D|-9-9-9-9-9-9-9-9-7-7-7-7-7-7-7-7-9-9-9-9-9-9-9-9-9-9-9--9--9--9--9--9-----|
A|---------------------------------------------------------------------(x4)-|
E|--------------------------------------------------------------------------|

Guitar 2 (light distortion)
e|-----------------------------------------------------------------------|
B|-7-7-7-7-7-7-7-7-7-7-7-7-7-7-7-7-8-8-8-8-8-8-8-8-8-8-8-8-8-8-8-8-8-----|
G|-7-7-7-7-7-7-7-7-6-6-6-6-6-6-6-6-9-9-9-9-9-9-9-9-9-9-9-7-7-7-7-7-7-----|
D|-----------------------------------------------------------------------|
A|------------------------------------------------------------------(x4)-|
E|-----------------------------------------------------------------------|

Pre-Chorus then Chorus Again

Bridge 2 

Guitar 2 (light distortion)
"You'll never see a finer ship..."
e|-----------7~~~-|
B|-7~~~-7~~~-8~~~-|
G|-7~~~-7~~~-9~~~-|
D|-7~~~-9~~~-9~~~-|
A|----------------|
E|----------------|

Outro

Guitar 1 (delay effect)    End On
e|------------------------|-------|
B|------------------------|-------|
G|------------------------|-------|
D|-9~~~-7~~~-/14~~~-12~~~-|-14~~~-|
A|------------------------|-------|
E|------------------------|-------|

Guitar 2 (delay effect)        
"White goddess, red goddess..." End On 
e|-----------------------------|-------|
B|-----------------------------|-------|
G|-----------------------------|-------|
D|-9~~~-16~~~-7~~~-17~~~-14~~~-|-17~~~-|
A|-----------------------------|-------|
E|-----------------------------|-------|
Suggest correction
comments
print report bad tab
7 comments total. Showing first comments.
0 reply
JonnyLegal 10 Mar 02, 2005 07:00 PM

He uses an ebow for the wailing background riff

0 reply
UnsignedRecords 767 Apr 01, 2005 07:00 PM

what's that? i have an effect on my pedal that matches it though.

0 reply
crosswalkernie 10 Jul 03, 2005 08:00 PM

I believe this is how you play it.

"I'm timeless like a broken watch..."
e|-2-2-x-2-x-2-|-2-2-2-2-2-x-|-7-7-7-x-x-7-x-7-|-7-7-x-x-7-7-x-|
B|-3-3-x-3-x-3-|-3-3-3-3-3-x-|-8-8-8-x-x-8-x-8-|-8-8-x-x-8-8-x-|
G|-4-4-x-4-x-4-|-2-2-4-4-2-x-|-9-9-9-x-x-9-x-9-|-7-7-x-x-7-7-x-|
D|-------------|-------------|-----------------|---------------|
A|-------------|-------------|-----------------|----------(x6)-|
E|-------------|-------------|-----------------|---------------|

guest
You may want to rate the tab now too:
select rating
Wanna post a correction for this tab? Suggest correction