Oops, an error
Loading. Please wait.

The New Tab

version 1
version 1

Intro

Whole song

Interactive

22,155 views 27 this week
4 commentsread comments
1 2 3 4 5
x 25
add to favorites
×
Save as Personal and add changes to this tab that will be seen only by you. Learn more ›
×
You can save this tab as Personal to edit and correct it or add notes. All changes will be seen only by you. Learn more »
save as personal
new!
launch autoscroll
font size
0
reset
how to read this tab
guitar tuner
backing track
0:00
0:00
Autoscroll
slow
fast
+/-
esc
set tempo
stop
Author
e|-------------------------------------------------------------|
B|-------------------------------------------------------------|
G|-------------------------------------------------------------|
D|-----2---3-2-------0---2---3-2-----2---3-2-------0---2---3-2-|2X
A|-3-3---3-----3-2-2---2---2-----0-0---0-----0-------2---2-----|
E|---------------------------------------------1-1-------------|

e|-------------------------------------------------------------------|
B|-------------------------------------------------------------------|
G|-------------------------------------------------------------------|
D|-----2---3-2-------0---2---3-2-----2---3-2-------0---2---3-2-5-3-2-|
A|-3-3---3-----3-2-2---2---2-----0-0---0-----0-------2---2-----------|
E|---------------------------------------------1-1-------------------|

e|--------------------------------------------------------|
B|--------------------------------------------------------|
G|--------------------------------------------------------|
D|---3-2-------0---2---3-2-----2---3-2---------2--2--2--2-|
A|-3-----3-2-2---2---2-----0-0---0-----0-----0--0--0--0---|
E|---------------------------------------1-1--------------|
Suggest correction
comments
print report bad tab
4 comments total. Showing first comments.
0 reply
danje 20 May 09, 2006 10:39 AM

very good, sounds great.

+4 reply
UnsignedRecords 767 Jul 26, 2006 09:31 PM

yeah sounds right, but it's played on bass.

+2 reply
Serg_fai 10 Mar 30, 2010 12:32 PM

I think that the last part isn't like this
e|--------------------------------------------------------|
B|--------------------------------------------------------|
G|--------------------------------------------------------|
D|---3-2-------0---2---3-2-----2---3-2---------2--2--2--2-|
A|-3-----3-2-2---2---2-----0-0---0-----0-----0--0--0--0---|
E|---------------------------------------1-1--------------|

i think it's more like this...
e|--------------------------------------------------------|
B|--------------------------------------------------------|
G|--------------------------------------------------------|
D|---3-2-------0---2---3-2-----2---3-2---------0--0--0--0-|
A|-3-----3-2-2---2---2-----0-0---0-----0-----2--2--2--2---|
E|---------------------------------------1-1--------------|

guest
You may want to rate the tab now too:
select rating
Wanna post a correction for this tab? Suggest correction