Oops, an error
Loading. Please wait.

The New Tab

version 1
version 1

Whole song

Interactive

44,479 views 42 this week
2 commentsread comments
1 2 3 4 5
x 13
add to favorites
×
Save as Personal and add changes to this tab that will be seen only by you. Learn more ›
×
You can save this tab as Personal to edit and correct it or add notes. All changes will be seen only by you. Learn more »
save as personal
new!
launch autoscroll
font size
0
reset
how to read this tab
guitar tuner
backing track
0:00
0:00
Autoscroll
slow
fast
+/-
esc
set tempo
stop
Author
Difficulty
intermediate
Interpol
The New

Guitar 1

"I wish I could live free..."
e|---------------------------------|
B|---------------------------------|
G|---------------------------------|
D|---------------------------------|
A|-7-7-7-7-7-7-7-7-8-8-8-8-8-8-8-8-|
E|---------------------------------|(x7)

"Baby, my heart's been breaking..."
e|---3-----3-----3-----3-----3-----3-----3-----3-----3-----3-------|
B|-5-----5-----5-----5-----5-----5-----5-----5-----5-----5-----5-0-|
G|-----0-----0-----0-----0-----0-----0-----0-----0-----0-----0-----|
D|-----------------------------------------------------------------|
A|-----------------------------------------------------------------|
E|-----------------------------------------------------------------|

"I gave a lot to you..."
e|-----0-------0-------1-------1-----0-------0-------1-------1---|
B|---1---1---1---0---3---3---3-----1---1---1---1---3---3---3---3-|
G|-0-------0-------0-------4-----2-------2-------2-------2-------|
D|---------------------------------------------------------------|
A|---------------------------------------------------------------|
E|---------------------------------------------------------------|(x3)

e|-----0-------0-------1-------1-----0-------0-------0-------0---|
B|---1---1---1---0---3---3---3-----1---1---1---1---1---1---1---1-|
G|-0-------0-------0-------4-----2-------2-------0-------0-------|
D|---------------------------------------------------------------|
A|---------------------------------------------------------------|
E|---------------------------------------------------------------|

"I can't pretend"
e|-----------------------------------------------|
B|-5-//--3-//---0-0-0-0-0-0-0-0-0-0-0-0--0-0-0-0-|
G|-5-//--4-//---4-4-4-2-2-2-4-4-4-4-4-4--4-4-4-4-|
D|--------------------------------0-0-0--0-0-0-0-|
A|-----------------------------------------------|
E|-----------------------------------------------|

e|------------------------------------------------|
B|-5-//---3-//---0-0-0-0-0-0-0-0-0-0-0-0--0-0-0-0-|
G|-5-//---4-//---2-2-2-5-5-5-4-4-4-4-4-4--4-4-4-4-|
D|---------------------------------0-0-0--0-0-0-0-|
A|------------------------------------------------|
E|------------------------------------------------|

When singing stops
e|------------|
B|------------|
G|-4-//--5-//-|
D|------------|
A|------------|
E|------------|(x4)

e|-------------|
B|-------------|
G|-4-//--3b(4)-| Bend 1/2 step
D|-------------|
A|-------------|
E|-------------|

Play into "You're looking alright tonight"
e|------|
B|-0-//-|
G|------|
D|------|
A|------|
E|------|
Detune 1/2 step down & retune 1/2 step up while playing

e|---------------------------------|
B|---------------------------3-----|
G|-------------0-----4-4---4---4-2-|
D|-----4-4-------3-----------------|
A|---------0-0-----2-----2---------|
E|-2-2-----------------------------|
                                   (6x)
e|---------------------------------|
B|---------------------------------|
G|-------------0-----4-4---2-0---0-|
D|-----4-4-------3-----------------|
A|---------0-0-----2-----2-----2---|
E|-2-2-----------------------------|

e|---------------------------------------|
B|---------------------------------------|
G|---------------------------------------|
D|---------------------------------------|
A|-14---9--12----7--10--9---5--7-7--9~~~-|
E|------0--------------------------------|(x2)

[Outro]
e|------------------------|
B|-15-//--14-14-14--17-//-|
G|-16-//--16-16-16--16-//-|
D|------------------------|
A|------------------------|
E|------------------------|

e|--------------|
B|-14-//--15-//-|
G|-18-//--19-//-|
D|--------------|
A|--------------|
E|--------------|
                                 (3x)
e|-------------------------------|
B|-14-//--15-15-15--15-//--15-//-|
G|-15-//--16-16-16--12-//--11-//-|
D|-------------------------------|
A|-------------------------------|
E|-------------------------------|

e|--------------------------|
B|-15-15-15-15--15-//-14-//-|
G|--------------12-//-11-//-|
D|-14-14-14-14--------------|
A|--------------------------|
E|--------------------------|

[End On]
e|-------|
B|-14~~~-|
G|-11~~~-|
D|-------|
A|-------|
E|-------|

Guitar 2

"I wish I could live free"
e|----------------------------------------|
B|-6~~~--------6~~~-------6~~~------------|
G|-7~~~--------5~~~-------7~~~-------7~~~-|
D|----------------------------------------|
A|----------------------------------------|
E|----------------------------------------|(x7)

"Baby, my heart's been breaking"
e|---------------------------------5----8-|
B|----------6------6-----6------6--5----8-|
G|-5~~~-----7------7-----7------7--5----0-|
D|----------------------------------------|
A|----------------------------------------|
E|----------------------------------------|
(each group of 2 notes is played at the beginning of a sentence)

"I can't pretend"
e|-------------------------------------------|
B|-6----6----6----6----6----6----6--6--6---6-|
G|-7----7----7----7----7----7----7--7--7---7-|
D|-------------------------------------------|
A|-------------------------------------------|
E|-------------------------------------------|
                                      (2x)
e|--------------------------5----8-|
B|-6----6----6----6----6----5----8-|
G|-7----7----7----7----7----5----0-|
D|---------------------------------|
A|---------------------------------|
E|---------------------------------|

e|---------------------------------|
B|-----6-------6-------6-------6---|
G|-7-7---7-7-7---7-7-7---7-7-7---7-|
D|---------------------------------|
A|---------------------------------|
E|---------------------------------|
                                   (6x)
e|---------------------------------|
B|-----6-------6-------6-------5---|
G|-5-5---5-5-5---5-5-5---5-5-5---5-|
D|---------------------------------|
A|---------------------------------|
E|---------------------------------|

e|------|
B|-0-//-|
G|------|
D|------|
A|------|
E|------|
Detune 1/2 step down & retune 1/2 step up while playing

"You're looking alright tonight"
e|--------------|
B|-12-//--11-//-|
G|--------------|
D|--------------|
A|--------------|
E|--------------|

When drums restart
e|---------------------|
B|---------------------|
G|-14-//--14-//--14-//-|
D|-16-//--16-//--16-//-|
A|--------14-//--------|
E|---------------------|

[Outro]
e|-----------------------------------------------|
B|-----------------------------------------------|
G|-16-//--11-//--14-//--9-//--12-//--11-//--7-//-|(2x)
D|-----------------------------------------------|
A|-14-//---9-//--12-//--7-//--10-//---9-//--5-//-|
E|-----------------------------------------------|

e|-------------|
B|-------------|
G|-11-//--7~~~-|
D|-------------|
A|-9--//--5~~~-|
E|-------------|



************************************

| /  Slide up
| ~  Vibrato
| b  bend 

************************************
Suggest correction
comments
print report bad tab
2 comments total.
+2 reply
gjac28 10 Dec 21, 2011 04:06 AM

I think that instead of

e|---------------------------------|
B|---------------------------------|
G|-------------0-----4-4---4/7-4-2-|
D|-----4-4-------4-----------------|
A|---------0-0-----2-----2---------|
E|-2-2-----------------------------|

0 reply
gjac28 10 Dec 21, 2011 04:08 AM

sorry, the upper one instead of

e|---------------------------------|
B|---------------------------3-----|
G|-------------0-----4-4---4---4-2-|
D|-----4-4-------3-----------------|
A|---------0-0-----2-----2---------|
E|-2-2-----------------------------|

guest
You may want to rate the tab now too:
select rating
Wanna post a correction for this tab? Suggest correction