Oops, an error
Loading. Please wait.

The New Bass Tab

version 3
version 3

Whole song

  • Changed the tuning to dropped D, since that's what... Show more

Interactive

16 views 1 this week
no commentswrite comment
1 2 3 4 5
3 more votes to show rating
add to favorites
launch autoscroll
font size
0
reset
guitar tuner
Autoscroll
slow
fast
+/-
esc
set tempo
stop
Help us to improve Ultimate-Guitar.com Take our survey!
×
Author
Difficulty
Tuning
intermediate
D A D G B E
About this tab version
Changed the tuning to dropped D, since that's what Carlos plays in. During the big breakdown is where the biggest note corrections were made, as well as some other formatting improvements for visual clarity. Was this info helpful? Yes No
NOTE: Carlos throws in some extra sixteenth notes during a few sections (especially during the big breakdown 
part) It was too visually confusing to tab out (so you'll have to listen for where), but this is the basic 
structure, annotated with mostly straight 8th notes. 


   W                   W                   W                 
G||-------------------|-------------------|-------------------|
D||-------------------|-------------------|-------------------|
A||-------------------|-------------------|-------------------|
D||-------------------|-------------------|-------------------|


     E   E  E   E   E  Q     E     E  E  E  E  E  E   E  E   
G|-----------9------10--9--------|--------7-----9-----10--9--|
D|*--10--10-----10-----------10--|--9--9-----9-----9---------|
A|*------------------------------|---------------------------|
D|-------------------------------|---------------------------|


    E  E  E  E   E  Q    E     E  E  E  E  E  E   E  E   3x
G|--------9-----10--9-------|--------7S----9-----10--9---||
D|--7--7-----7-----------7--|--0--0-----0-----0---------*||
A|--------------------------|---------------------------*||
D|--------------------------|----------------------------||


     E   E  E   E   E  Q     E     E  E  E  E  E  E   E  E   
G|--12--10--9------10--9--------|--------7-----9-----10--9--|
D|-------------10-----------10--|--9--9-----9-----9---------|
A|------------------------------|---------------------------|
D|------------------------------|---------------------------|


    E  E  E  E   E  Q    E     E  E  E  E  E  E  E  E   
G|--------9-----10--9-------|-----7-----7-----7-----7--|
D|--7--7-----7-----------7--|--0-----0-----9-----9-----|
A|--------------------------|--------------------------|
D|--------------------------|--------------------------|


      E  E   E  E   E  E   E  E     E  E  E  E  E  E  E  E   
G|-------9------9------9------9--|-----7-----7-----7-----7--|
D|*--10-----10-----10-----10-----|--9-----9-----9-----9-----|
A|*------------------------------|--------------------------|
D|-------------------------------|--------------------------|


    E   E  E   E  E  E  E  E     E  E  E  E  E  E  E  E   4x
G|-----10-----10-----9-----9--|-----7-----7-----7-----7---||
D|--7------7------7-----7-----|--0-----0-----9-----9-----*||
A|----------------------------|--------------------------*||
D|----------------------------|---------------------------||


      E   E  E   E   E   E  E   E     E  E  E  E  E  E  E  E   
G|-----------9--------------9------|--------7-----------7-----|
D|*--10--10-----10--10--10-----10--|--9--9-----9--9--9-----9--|
A|*--------------------------------|--------------------------|
D|---------------------------------|--------------------------|


    E  E   E  E  E  E  E  E     E  E  E  E  E  E  E  E   2x
G|--------10-----------9-----|-----7*----7*----7-----7---||
D|--7--7------7--7--7-----7--|--0-----0-----9-----9-----*||
A|---------------------------|--------------------------*||
D|---------------------------|---------------------------||
7*=notes are played staccato

      E  E   E   Q     E  Q       E  E  E  E   Q     Q     
G|-------9------10----10--9----|-----7-----7S--9----10----|
D|*--10-----10-----------------|--9-----9-----------------|
A|*----------------------------|--------------------------|
D|-----------------------------|--------------------------|


    E  E   E  E  E  E  E  E     E   E   E   E  E  E  E  E   2x  
G|--L-----10-----9-----9-----|-----7*------7*-----7-----7---||
D|-----7------7-----7-----7--|--0-------0------9-----9-----*||
A|---------------------------|-----------------------------*||
D|---------------------------|------------------------------||


    E   E   E   E   E   E   E   E     E  E  E  E  E  E  E  E   
G|-----------------------------------|--------------------------|
D|*--10--10--10--10--10--10--10--10--|--9--9--9--9--9--9--9--9--|
A|*----------------------------------|--------------------------|
D|-----------------------------------|--------------------------|


    E  E  E  E  E  E  E  E     E  E  E  E  E  E  E  E   4x
G|--------------------------|--------7------------------||
D|--7--7--7--7--7--7--7--7--|-----0-----0-----7--7--9--*||
A|--------------------------|--------------------------*||
D|--------------------------|---------------------------||


     W                   H.           E  E     W                 
G|--------------------|---------------------|-------------------|
D|--10----------------|--9------------L--9--|--7----------------|
A|--------------------|---------------------|-------------------|
D|--------------------|---------------------|-------------------|


    H.           E  E      H.           E   E     H.           E  E   
G|---------------------|-----------------------|---------------------|
D|--0------------L--9--|--10------------L--10--|--9------------L--9--|
A|---------------------|-----------------------|---------------------|
D|---------------------|-----------------------|---------------------|


    W                   H.           E  E      H.           E   E   
G|-------------------|---------------------|-----------------------|
D|--7----------------|--L------------L--9--|--10------------L--10--|
A|-------------------|---------------------|-----------------------|
D|-------------------|---------------------|-----------------------|


    W                   W                   H.           E  E   
G|-------------------|-------------------|---------------------|
D|--9----------------|--L----------------|--L------------L--9--|
A|-------------------|-------------------|---------------------|
D|-------------------|-------------------|---------------------|


     W                   W                   W                 
G|--------------------|-------------------|-------------------|
D|--10----------------|--L----------------|--L----------------|
A|--------------------|-------------------|-------------------|
D|--------------------|-------------------|-------------------|


    H.           E  E     W                   H.           E  E   
G|---------------------|-------------------|---------------------|
D|--L------------L--9--|--L----------------|--L---------------9--|
A|---------------------|-------------------|---------------------|
D|---------------------|--9----------------|--L---------------L--|


    W                   H.           E  E     H        Q.     E   
G|-------------------|---------------------|---------------------|
D|--L----------------|--L---------------9--|--L---------------9--|
A|-------------------|---------------------|-----------9---------|
D|--9----------------|--L---------------L--|--9------------------|


    Q     H        E  E     H        Q.     E     Q     H.            
G|-------11--------L-----|---------------------|-------11------------|
D|--L-----------------9--|--L---------------9--|--L------------------|
A|-----------------------|-----------9---------|---------------------|
D|-----------------------|--9------------------|---------------------|


    E  E  E  E  E  E  E  E    E  E  E  E  E  E  E     
G|-------------------------|-------------------------|
D|-------------------------|-------------------------|
A|--5--5--5--5--5--5--4--4-|--3--2--2--2--2--3--3----|
D|-------------------------|-------------------------|


    E  E  E  E  E  E  E  E     E  E  E  E  S S S S  E  E  
G|--------------------------|----------------------------|
D|--------------------------|--------------4-4-4-4-------|
A|--3--3--4--4--5--5--7--7--|--5--2--3—-3-----------3--3-|
D|--------------------------|----------------------------|


     E  E  E  E  E  E  E  E    E  E  E  E  E  E  E     
G|--------------------------|--------------5-----6-----|
D|*-------------------------|--------------------------|
A|*--5--5--5--5--5--5--4--4-|--3--2--2/(3)----4--------|
D|--------------------------|--------------------------|
     2/(3)=slide up to w/out striking the note

    E  E  E  E  E  E  E  E     E  E   E  E  S  S  S  S  E  E    2x 
G|--------------9--------7--|--------------11-11-11-11----------||
D|--------------------------|----------------------------------*||
A|--5--5--5/(7)----7\(5)----|--5---------9--------------9------*||
D|--------------------------|-----9--10--------------------9\---||
  Same thing here. slide up or down to the note without hitting it


    E  E  E  E  E  E  E  E     E  E  E  E  E  E  E  E   
G|--------------------------|--------------------------|
D|--------------------------|--------------------------|
A|--5--5--5--5--5--5--4--4--|--3--2--2--2-----3-----4--|
D|--------------------------|--------------------------|


    E  E  E  E  E  E  E  E      Q.    E  E  E  E  E   
G|--------------------------|------------------------|
D|--------------------------|---------------2--3-----|
A|-----5----7----5----2-----|------------------------|
D|--------------------------|---------2--3--------2--|


     E  E  E  E  E  E  E  E     E  E  E  E  E  E   E  E   
G|---------------------------|---------------------------|
D|*--------4--4--0--0--------|---------------------------|
A|*-----------------------0--|--2--2-----0--2--2S--5--5--|
D|---4--4--------------------|---------------------------|


    E  E  E  E  E  E  E  E     E  E  E  E  E  E  E  E     
G|--------------------------|-----------------4---------||
D|--------4--4--0--0--------|--------------------------*||
A|--5--------------------0--|--2--2-----0--2-----------*||
D|-----4--------------------|-----------------------0---||


     E  E  E  E  E  E  E  E     E  E  E  E  E  E   E  E   
G|---------------------------|---------------------------|
D|*--------4--4--0--0--------|---------------------------|
A|*-----------------------0--|--2--2-----0--2--2S--5--5--|
D|---4--4--------------------|---------------------------|

    E  E  E  E  E  E  E  E      
G|---------------------------||
D|--------4--4--0--0--------*||
A|--5--------------------0--*||
D|-----4---------------------||

    E  H.            S  S     Q     E   S  S  E   E   E    E   
G|------------------12-12-|--14----14--14-14-14--12--12S--14--|
D|------------------------|-----------------------------------|
A|--2---------------------|-----------------------------------|
D|------------------------|-----------------------------------|


    E   E   Q     E   S  S  E   S  S     Q     E   S  S  E   Q     E   
G|--L--12--11----12--12-12-11--12-12-|--14----14--14-14-14--12----11--|
D|-----------------------------------|--------------------------------|
A|-----------------------------------|--------------------------------|
D|-----------------------------------|--------------------------------|


    E   Q     Q     Q     E      E   E   E   S  S   E   E   E   E   
G|--L--12----11----12----11--|--12--14--14--11-12S-14--12--12--14--|
D|---------------------------|-------------------------------------|
A|---------------------------|-------------------------------------|
D|---------------------------|-------------------------------------|


    E   E   Q     E   S  S  E   S  S     E   E   Q     E   E   E    E   
G|--L--12--11----12--12-12-11--12-12-|--14--12--11----11--11--11S--16--|
D|-----------------------------------|---------------------------------|
A|-----------------------------------|---------------------------------|
D|-----------------------------------|---------------------------------|


    E   E   E   S  S E  E  E  S S      E  E  E  S S E  S S E  E   
G|--L--16--16--16-16--------------||-----------------------------|
D|--------------------------------||*--------4--4-4-0--0-0-------|
A|--------------------------------||*-------------------------0--|
D|----------------------0--0--1-2-||---4--4----------------------|


    E  S S E  E  E  S S E  S S    E  E  E  S S E  S S E  E   
G|------------------4-4----6-6-|----------------------------|
D|-----------------------------|--------4--4-4-0--0-0-------|
A|--2--2-2----0--2------4------|-------------------------0--|
D|-----------------------------|--4--4----------------------|


    E  S S E  E  E  S S E  S S    E  E  E  S S E  S S E  E   
G|------------------4-4----4-4-|----------------------------|
D|-----------------------------|--------4--4-4-0--0-0-------|
A|--2--2-2----0--2------2------|-------------------------0--|
D|-----------------------------|--4--4----------------------|


    E  S S E  E  E  S S E  S S    E  E  E  S S E  S S E  E   
G|------------------4-4----6-6-|----------------------------|
D|-----------------------------|--------4--4-4-0--0-0-------|
A|--2--2-2----0--2------4------|-------------------------0--|
D|-----------------------------|--4--4----------------------|


    Q    E  E  E  E  E  E       Q    E  E  E  E  E  E   
G|--------------------------||-------------------------|
D|----------------2--3-----*||-------------------------|
A|--2----------------------*||--2----------------------|
D|----------2--3------------||----------2--3--3--4--2--|


     E  E  E  E  E  E  E  E     E  E  E  E  E  E   E  E   
G|---------------------------|---------------------------|
D|*--------4--4--0--0--------|---------------------------|
A|*-----------------------0--|--2--2-----0--2--2S--5--5--|
D|---4--4--------------------|---------------------------|


    E  E  E  E  E  E  E  E     E  E  E  E  E  E  Q       
G|--------------------------|--------------------------||
D|--------4--4--0--0--------|-------------------------*||
A|--5--------------------0--|--2--2-----0--2--2-------*||
D|-----4--------------------|--------------------------||


    E  E  H.                E  E  E  E  E  E  E  E   
G|---------------------||---------------------------|
D|---------------------||*--------4--4--0--0--------|
A|--2------------------||*-----------------------0--|
D|---------------------||---4--4--------------------|


    E  E  E  E  E  E   E  E     E  E  E  E  E  E  E  E   
G|---------------------------|--------------------------|
D|---------------------------|--------4--4--0--0--------|
A|--2--2-----0--2--2S--5--5--|--5--------------------0--|
D|---------------------------|-----4--------------------|


    E  E  E  E  E  E  Q         E  E  E  E  E  E  E  E   
G|--------------------------||--------------------------|
D|-------------------------*||--4--4--4--4--4--4--4--4--|
A|--2--2-----0--2--2-------*||--------------------------|
D|--------------------------||--------------------------|


     E  E  E  E    E   E   E   E     E  E  E  E  E  E    E   E   3x
G|--------------------------------|------------------------------||
D|*-------------------------------|-----------------------------*||
A|*-------------------------------|-----------------------------*||
D|---4--4--4--4S--12--12--12--12--|--9--9--9--9--9--9S--12--12---||


    E  E  E  E    E   E   E   E     E  E  E   E  E   E   E   E   
G|-------------------------------|--------------------------------|
D|-------------------------------|---------------4---4---4---4----|
A|-------------------------------|--------------------------------|
D|--4--4--4--4S--12--12--12--12--|--4--4--4--4S-------------------|


   W                  
G|--------------------||
D|--------------------||
A|---2----------------||
D|--------------------||

Duration Legend
---------------
W - whole
H - half
Q - quarter
E - 8th
S - 16th
. - note dotted

Tablature Legend
----------------
L - tied note
S - slide
/ -  slide into from below or out of upwards
\ -  slide into from above or out of downwards
Suggest correction
Give kudos to tab author, rate the tab!
1 2 3 4 5
comments
print report bad tab
guest
You may want to rate the tab now too:
select rating
Wanna post a correction for this tab? Suggest correction