Oops, an error
Loading. Please wait.

Amante Bass

13 views 1 this week
no commentswrite comment
1 2 3 4 5
3 more votes to show rating
add to favorites
launch autoscroll
font size
0
reset
guitar tuner
×
Best way to learn
"Amante"
Autoscroll
slow
fast
+/-
esc
set tempo
stop
AQUI ESTA LA CORRECION DEESTA GRAN ROLA Y  EL REQUINTO
Y ESTA CANCION SE LA DEDICO A LA CHAVA DE MIS SUEÑOS
CLAUDIA PANTOJA DIAZ GRACIAS POR TU APOYO Y COMPRESION
AMANTE POR SIEMPRE.

INTRO: Am Am A? Asus4 Asus4 Am X 2
NOTA: SOLO ES UN RASGUE POR CADA PISADA VER EL
DETALLE DE A? Y Asus4

EL VERSO SE TOCA MUY DESPACIO

 Am                   F
SIENTO TU CUERPO DESNUDO
   G                 Am A? Asus4 Am
ROZARZE CON EL MIO
  Am           F
Y ESTANDO JUNTOS
        G                  Am A? Asus4 Am
NOS HUNDIMOS EN UN VACIO

  Am             F
LA NOCHE ES LARGA
       G                 Am A? Asus4 Am
HAY MUCHO DE QUE HABLAR
  Am             F
Y NUESTRO DESTINO
          G                Am A? Asus4 Am
ES UN JUEGO DE AZAR

Am Am A? Asus4 Asus4 Am
NOTA: SOLO ES UN RASGUE POR CADA PISADA

CUANDO SE TOCA EL REQUITO EL ACOMPAÑA SE SIGUE LAS PISADAS

ESTO SE REPITE DOS VECES Y DESPUES EMPIEZAS A CANTAR
PERO CON EL RASGUEO MAS RAPIDO

E---12-10-8-10|---12-10-8-10-|---12-10-8-10-8-7-8-5-|
B-------------|--------------|----------------------|
G-------------|--------------|----------------------|
D-------------|--------------|----------------------|
A-------------|--------------|----------------------|
E-------------|--------------|----------------------|

 Am                    F
SIENTO TU CUERPO DESNUDO
   G                 Am
ROZARZE CON EL MIO
  Am           F
Y ESTANDO JUNTOS
        G                  Am
NOS HUNDIMOS EN UN VACIO

  Am             F
LA NOCHE ES LARGA
       G                 Am
HAY MUCHO DE QUE HABLAR
  Am             F
Y NUESTRO DESTINO
          G                Am
ES UN JUEGO DE AZAR

CORO:
    C          G
ACARICIO TU CUERPO
   F                Am
ROZANDOTE LA PIEL
    C         G
TE JUEGO EL CABELLO
   F                   Am
HASTA EL AMANECER

  C           G
HACIENDO EL AMOR
   F            Am
APASIONADAMENTE
   C           G            F
QUISIERA SER TU AMANTE
      Am
ETERNAMENTE

SE  VUELVE A REPITE DOS VECES Y MIENTRASLA OTRA
GUITARRA TOCA: Am F G Am DOS VECES

E---12-10-8-10|---12-10-8-10-|---12-10-8-10-8-7-8-5-|
B-------------|--------------|----------------------|
G-------------|--------------|----------------------|
D-------------|--------------|----------------------|
A-------------|--------------|----------------------|
E-------------|--------------|----------------------|

VERSO:
  Am                F
LLEGA UN NUEVO DIA
           G                Am
DESPERTAMOS ABRAZADOS
  Am                F
Y ESTANDO CONTIGO
    G                  Am
TODO PARECE UN SUEÑO

   Am            F
POR CUANTO TIEMPO
      G          Am
ESO NO LO SABEMOS
    Am                 F
TAN SOLO HAY QUE VIVIRLO
    G             A
MIENTRAS PODEMOS

CORO:
    C          G
ACARICIO TU CUERPO
   F                Am
ROZANDOTE LA PIEL
    C         G
TE JUEGO EL CABELLO
   F                   Am
HASTA EL AMANECER

  C           G
HACIENDO EL AMOR
   F            Am
APASIONADAMENTE
   C           G            F
QUISIERA SER TU AMANTE
      Am
ETERNAMENTE

C G F Am X 4

CORO:
    C          G
ACARICIO TU CUERPO
   F                Am
ROZANDOTE LA PIEL
    C         G
TE JUEGO EL CABELLO
   F                   Am
HASTA EL AMANECER

  C           G
HACIENDO EL AMOR
   F            Am
APASIONADAMENTE
   C           G            F
QUISIERA SER TU AMANTE
      Am
ETERNAMENTE

SE  VUELVE A REPITE CUATRO VECES Y SE TERMINA
CON UN RASGUEO Am

E---12-10-8-10|---12-10-8-10-|---12-10-8-10-8-7-8-5-|
B-------------|--------------|----------------------|
G-------------|--------------|----------------------|
D-------------|--------------|----------------------|
A-------------|--------------|----------------------|
E-------------|--------------|----------------------|

ACORDE A?

 TR1  TR2 TR3
E|---|---|---|
B|---|---|---|
G|---|-3-|---|
D|---|-2-|---|
A|---|---|---|
E|---|---|---|

ACORDE Asus4

 TR1  TR2 TR3
E|---|---|---|
B|---|---|-4-|
G|---|-3-|---|
D|---|-2-|---|
A|---|---|---|
E|---|---|---|

UN SALUDO A TODA ESA BANDA ROCKERA DE LA ESIA SE
TECAMACHALCO ,A LA DE VOCA 7 Y LA ESIA DE ZACATENCO
EN ESPECIAL AL CLAUDIO Y AL JUNIOR.
Suggest correction
Give kudos to tab author, rate the tab!
1 2 3 4 5
comments
print report bad tab
guest
You may want to rate the tab now too:
select rating
Wanna post a correction for this tab? Suggest correction