Oops, an error
Loading. Please wait.

Historia De Un Minuto Bass

version 1
version 1

Whole song

196 views 1 this week
no commentswrite comment
1 2 3 4 5
3 more votes to show rating
add to favorites
launch autoscroll
font size
0
reset
guitar tuner
×
Best way to learn
"Historia De Un Minuto"
Autoscroll
slow
fast
+/-
esc
set tempo
stop
AQUI LES MANDO EL BAJEO DE HISTORIA DE UN MINUTO PARA TODOS LOS ROCKEROS
DEL PAIS. ES LA PRIMERA QUE MANDO ESPERO QUE ME HAYA QUEDADO BIEN Y QUE 
LE ENTIENDAN.

AQUI EMPIEZA EL BAJEO CUANDO EN LA CANCION DICE:
*ELLA CONVIRTIO LA NOCHE EN UN.......*
G|------------------------------|-----------------------------------| 
D|------5--5---5---5-5-4-2------|----2---2---2-2--------------------|
A|----------5-5-----------------|-----2-2-----2-3--3---3---3-3--5---|
E|------------------------------|-------------------3-3-----3-------|


G|------------------------------|
D|------------------------------|   TODO ESTO SE REPITE
A|--------5---5--5-5------------|   TRES VECES (X3)
E|---------5-5----5-------------|

DESPUES DE ESTO SE SIGUEN CON EL SIGUIENTE BAJEO (OJO CASI ES EL MISMO)
CUANDO EN LA CANCION DICE:  *ESTOY HARTA DE TODO, DE TANTO.....*

G|------------------------------|-----------------------------------|
D|------5--5---5---5-5-4-2------|-----2---2---2-2--2-3-5--2-3-5-----|
A|----------5-5-----------------|------2-2-----2--3------3----------|
E|------------------------------|-----------------------------------|


G|-------------7-5-4-2----------|  
D|------4-5-7-------------------|     LO HACEN DOS VECES 
A|-----5------------------------|        (X2)
E|------------------------------|

DESPUES DE HABER HECHO ESTO, SE VUELVE A TOCAR EL PRIMER BAJEO. 
(BUENOOO.. PARA QUE VEAN QUE SOY CUATE HAY LES VA)

G|------------------------------|-----------------------------------| 
D|------5--5---5---5-5-4-2------|----2---2---2-2--------------------|
A|----------5-5-----------------|-----2-2-----2-3--3---3---3-3--5---|
E|------------------------------|-------------------3-3-----3-------|


G|------------------------------|
D|------------------------------|   SOLO UNA VEZ; Y DESPUES
A|--------5---5--5-5------------|   SE TOCA EL SIGUIENTE POR
E|---------5-5----5-------------|   EL RESTO DE LA CANCION:


ESTE ES EL SIGUIENTE (ES EL MISMO QUE EL SEGUNDO BAJEO)

G|------------------------------|-----------------------------------|
D|------5--5---5---5-5-4-2------|-----2---2---2-2--2-3-5--2-3-5-----|
A|----------5-5-----------------|------2-2-----2--3------3----------|
E|------------------------------|-----------------------------------|


G|-------------7-5-4-2----------|        G(SOL)= a la 3ra. cuerda
D|------4-5-7-------------------|         D(RE)= a la 4ta. cuerda
A|-----5------------------------|         A(LA)= a la 5ta. cuerda
E|------------------------------|         E(MI)= a la 6ta. cuerda

UN SALUDO A TODA LA BANDA DE LA E.S.I.M.E. ZACATENCO.
NOTA: CUALQUIER DUDA O ACLARACION FAVOR DE REPORTARLO A MI E-MAIL.
Suggest correction
Give kudos to tab author, rate the tab!
1 2 3 4 5
comments
print report bad tab
guest
You may want to rate the tab now too:
select rating
Wanna post a correction for this tab? Suggest correction