Oops, an error
Loading. Please wait.

Historia De Un Minuto Tab

version 1
version 1

Whole song

210 views 3 this week
no commentswrite comment
1 2 3 4 5
2 more votes to show rating
add to favorites
×
Save as Personal and add changes to this tab that will be seen only by you. Learn more ›
×
You can save this tab as Personal to edit and correct it or add notes. All changes will be seen only by you. Learn more »
save as personal
new!
launch autoscroll
font size
0
reset
how to read this tab
guitar tuner
Autoscroll
slow
fast
+/-
esc
set tempo
stop
Bueno, estos son los solillos de la canción, ya puse
el bajeo  y ahora los solos, nadamas me faltaron los 
acordes q se me adelantaron. jejeje, espero q la 
disfruten


SOLO DEL INTRO

e|--12*14*12-------------------------------------|
B|-----------15---13-12-10-8-10 10/12-10-8-7-7*8-|
G|-----------------------------------------------|
D|-----------------------------------------------|
A|-----------------------------------------------|
E|-----------------------------------------------|


e|-------------------------------------------14/*15~-|
B|-10-8-10/12-13-12-13/15-17-15-17~--15-13-15--------|
G|---------------------------------------------------|
D|---------------------------------------------------|
A|---------------------------------------------------|
E|---------------------------------------------------|


SOLO

e|-7*5---5--5-7*5--5---5-7*5---5--5--7*5--5----------|
B|-----8--8------8---8-------8---8------8---8-7-7-8--|
G|---------------------------------------------------|
D|---------------------------------------------------|
A|---------------------------------------------------|
E|---------------------------------------------------|


                                /--lo---más---rápido-
e|-----------------------------------------------7---|
B|-10-8-10-8-7-8---7*8*7---7-----7-8-7-8-10-8-10--10-|
G|-----------------------9---9--9--------------------|
D|---------------------------------------------------|
A|---------------------------------------------------|
E|---------------------------------------------------|


 ---q--puedas---------\
e|-7-8-7-8-10-8-10-12~---*10-10^12-10-8-7-8-7--8-10--|
B|---------------------------------------------------|
G|---------------------------------------------------|
D|---------------------------------------------------|
A|---------------------------------------------------|
E|---------------------------------------------------|


e|-12-14-15-17-15-14-14*15~---12*14*12-10-12-8-10-8--|
B|---------------------------------------------------|
G|---------------------------------------------------|
D|---------------------------------------------------|
A|---------------------------------------------------|
E|---------------------------------------------------|

e|-7-5-3~~~~~----------------------------------------|
B|---------------------------------------------------|
G|---------------------------------------------------|
D|---------------------------------------------------|
A|---------------------------------------------------|
E|---------------------------------------------------|

SOLO DEL FINAL

e|-10-10*8-8-8*7-7-7---------------------------------|
B|------------------10-10-10*8-8-8*7-7-7-------------|
G|--------------------------------------9-9-9-7-7-7--|
D|---------------------------------------------------|
A|---------------------------------------------------|
E|---------------------------------------------------|

e|-------------------------------12-12-------12-12---|
B|----7---7-8---12-12-13-13-15-15------15-15---------|
G|-9~---9--------------------------------------------|
D|---------------------------------------------------|
A|---------------------------------------------------|
E|---------------------------------------------------|

e|----12-14-14-15~~~~~~~~~~--------------------------|
B|-15------------------------------------------------|
G|---------------------------------------------------|
D|---------------------------------------------------|
A|---------------------------------------------------|
E|---------------------------------------------------|


Espero q la practiquen y q les salga super chida...
en especial al buen amigo Luis Oscar Gaeta... practicala
master...ya saben, comentarios, sugerencias, preguntas, 
dudas chistes o lo q sea a mi correo  
jcd_007@

GRACIAS...
Suggest correction
Give kudos to tab author, rate the tab!
1 2 3 4 5
comments
print report bad tab
guest
Wanna post a correction for this tab? Suggest correction