Oops, an error
Loading. Please wait.

Historia De Un Minuto Bass

version 2
version 2

Whole song

93 views 6 this week
no commentswrite comment
1 2 3 4 5
3 more votes to show rating
add to favorites
launch autoscroll
font size
0
reset
guitar tuner
×
Best way to learn
"Historia De Un Minuto"
Autoscroll
slow
fast
+/-
esc
set tempo
stop
Esta es la rola del metro, grabada en estudio con 
una buena línea de bajo...

intro con guitarra una vuelta....

entra bateria y bajo...
G|-----------------------------------------------|
D|-----------------------------------------------|
A|-------5--5------5---------2--2------2-0-------|
E|--3--3------3--3----3-0--0------0--0-----------|


G|-----------------------------------------------|
D|-------5--5------5---------7--7------7--5------|
A|--3--3------3--3----7--5--5------5--5----------|
E|-----------------------------------------------|


  Ella convirtio la noche en un poema de amor
G|-----------------------------------------------|
D|-----------------------------------------------|
A|-------5--5------5---------2--2------2-0-------|
E|--3--3------3--3----3-0--0------0--0-----------|

  ella prometio mil días de alegría sólo a él
G|-----------------------------------------------|
D|-------5--5------5----------7--7------7/9-7-5--|
A|--3--3------3--3----7--5--5------5--5----------|
E|-----------------------------------------------|

  luego el tiempo habló no todo fué tan bello no no no
G|-----------------------------------------------|
D|-----------------------------------------------|
A|-------5--5------5--------2--2------2-0--------|
E|--3--3------3--3---3-0--0------0--0------------|

  ella se marchó, dejandole una carta en el buro...
G|-----------------------------------------------|
D|-------5--5------5----------7--7------7/9-7-5--|
A|--3--3------3--3----7--5--5------5--5----------|
E|-----------------------------------------------|
la carta decía

  estoy harta de todo          de tanto rodar
G|-----------------------------------------------|
D|-----------------------------------------------|
A|------5-5------------------------2-2-----2-0---|
E|--3-3-----3--3-3*7*3--2*5*2-0--0-----0-0-----3-|

   no es culpa tuya es sólo mi forma de ser
G|-----------------------------------------------|
D|------4-5-----4-5------7-9/12-10-9-7-----------|
A|--3-7-----3-7------5-9-------------------------|
E|-----------------------------------------------|

pero esta noche no, no pienso ir a buscarla no no no
G|-----------------------------------------------|
D|-----------------------------------------------|
A|------5-5------------------------2-2-----2-0---|
E|--3-3-----3--3-3*7*3--2*5*2-0--0-----0-0-----3-|

   esta noche no, no quiero ni mirarla otra vez
G|-----------------------------------------------|
D|------4-5-----4-5------7-9/12-10-9-7-----------|
A|--3-7-----3-7------5-9-------------------------|
E|-----------------------------------------------|

(intermedio-silbido)
G|-----------------------------------------------|
D|-----------------------------------------------|
A|-------5--5------5---------2--2------2-0-------|
E|--3--3------3--3----3-0--0------0--0-----------|

G|-----------------------------------------------|
D|-------5--5------5----------7--7------7--5-----|
A|--3--3------3--3----7--5--5------5--5----------|
E|-----------------------------------------------|

(primer vuelta de sólo de guitarra)
G|-----------------------------------------------|
D|-----------------------------------------------|
A|------5-5------------------------2-2-----2-0---|
E|--3-3-----3--3-3*7*3--2*5*2-0--0-----0-0-----3-|

G|-----------------------------------------------|
D|------4-5-----4-5------7-9/12-10-9-7-----------|
A|--3-7-----3-7------5-9-------------------------|
E|-----------------------------------------------|

(segunda vuelta de sólo de guitarra)
G|-----------------------------------------------|
D|-----------------------------------------------|
A|-------5--5------5---------2--2------2-0-------|
E|--3--3------3--3----3-0--0------0--0-----------|

G|-----------------------------------------------|
D|------4-5-----4-5------7-9/12-10-9-7-----------|
A|--3-7-----3-7------5-9-------------------------|
E|-----------------------------------------------|

  Estoy harta de todo        de tanto rodar
G|-----------------------------------------------|
D|-----------------------------------------------|
A|------5-5------------------------2-2-----2-0---|
E|--3-3-----3--3-3*7*3--2*5*2-0--0-----0-0-----3-|

  no es culpa tuya es sólo mi forma de ser
G|-----------------------------------------------|
D|------4-5-----4-5------7-9/12-10-9-7-----------|
A|--3-7-----3-7------5-9-------------------------|
E|-----------------------------------------------|

Pero, ésta noche no, no pienso ir a buscarla no no no
G|-----------------------------------------------|
D|-----------------------------------------------|
A|-------5--5------5---------2--2------2-0-------|
E|--3--3------3--3----3-0--0------0--0-----------|

  ésta noche no, no quiero ni mirarla otra vez
G|-----------------------------------------------|
D|------4-5-----4-5------7-9/12-10-9-7-----------|
A|--3-7-----3-7------5-9-------------------------|
E|-----------------------------------------------|

Outro - silbido
G|-----------------------------------------------|
D|-----------------------------------------------|
A|-------5--5------5---------2--2------2-0-------|
E|--3--3------3--3----3-0--0------0--0-----------|

G|-----------------------------------------------|
D|------4-5-----4-5------7-9/12-10-9-7-----------|
A|--3-7-----3-7------5-9-------------------------|
E|-----------------------------------------------|

  (guitarra)
G|-----------------------------------------------|
D|-----------------------------------------------|
A|-------5--5------5---------2--2------2-0-------|
E|--3--3------3--3----3-0--0------0--0-----------|

G|-----------------------------------------------|
D|------4-5-----4-5------7-9/12-10-9-7-----------|
A|--3-7-----3-7------5-9-------------------------|
E|---------------------------------------3(3333)-|


Espero q les guste, los arreglos como de rock clásico 
estan padres... ustedes metanle lo suyo.
Ya saben, cualquier duda, comentario o corrección a mi 
mail jcd_007@
J U L I O
Suggest correction
Give kudos to tab author, rate the tab!
1 2 3 4 5
comments
print report bad tab
guest
You may want to rate the tab now too:
select rating
Wanna post a correction for this tab? Suggest correction