Oops, an error
Loading. Please wait.

Historia De Un Minuto Tab

version 2
version 2

Whole song

161 views 3 this week
no commentswrite comment
1 2 3 4 5
3 more votes to show rating
add to favorites
launch autoscroll
font size
0
reset
how to read this tab
guitar tuner
Autoscroll
slow
fast
+/-
esc
set tempo
stop
Help us to improve Ultimate-Guitar.com Take our survey!
×
bueno esta es mi primera transcripcion espero
que les agrade es 100% correcta! y un saludo a la vocacional 7
y a la banda del grupo :1IVA
En especial a mi novia lizbeth te amo!

comensamos con un silbido por cada cambio de acordes los cuales son:
 SOL,MIm,DO,RE
  g, Em, c, d

o bien podemos sustituir el silbido con este punteo:

e ---------7-7----------------
B -------------10-8-10-12-10-8
G ----------------------------
D ----------------------------  X2
A ----------------------------
E ----------------------------

e -----------8-8-----------------
B ---------------12-10-12-13-12-10
G -------------------------------
D ------------------------------- X2
A -------------------------------
E -------------------------------

SOL                            MIm
Ella convirtio la noche en un poema de amor
DO                             RE
ella prometio mil dias de alegria solo a el
SOL                                     MIm
luego el tiempo hablo, no todo fue tan bello no,no,no
DO                            RE
ella se marcho dejandole una carta en el buro
     RE
"y la carta decia"

SOL                SOL RE MIm
Estoy harta de todo        de tanto rodar
SOL RE DO                         RE
         No es culpa tuya es solo mi forma de ser
SOL                            MIm
pero esta noche no,  no pienso ir a buscarla no,no,no
DO                       RE
esta noche no, no quiero ni mirarla otra vezzzz.


SOL,MIm,DO RE X2(guitarra de acompañamiento)
e ---------7-7----------------
B -------------10-8-10-12-10-8
G ----------------------------
D ----------------------------  X2
A ----------------------------
E ----------------------------

e -----------8-8-----------------
B ---------------12-10-12-13-12-10
G -------------------------------
D ------------------------------- X2
A -------------------------------
E -------------------------------


SOL                SOL RE MIm
Estoy harta de todo        de tanto rodar
SOL RE DO                         RE
         No es culpa tuya es solo mi forma de ser
SOL                          MIm
pero esta noche no,no pienso ir a buscarla no,no,no
DO                       RE
esta noche no, no quiero ni mirarla otra vezzzz.


espero que les guste esta cancion sensillita pero bien rifada suerte!!
dudas o comentarios aqui esta mi correo:copelas-o-cuello@
tambien complasco con rolas si tiene alguna peticion.
Suggest correction
Give kudos to tab author, rate the tab!
1 2 3 4 5
comments
print report bad tab
guest
You may want to rate the tab now too:
select rating
Wanna post a correction for this tab? Suggest correction