Oops, an error
Loading. Please wait.

Madre Soltera Tab

17 views 1 this week
no commentswrite comment
1 2 3 4 5
3 more votes to show rating
add to favorites
launch autoscroll
font size
0
reset
how to read this tab
guitar tuner
Autoscroll
slow
fast
+/-
esc
set tempo
stop
Help us to improve Ultimate-Guitar.com Take our survey!
×
INTRO :MADRE SOLTERA
QUIERO MANDARLE UN SALUDO A MI BANDA DE ROCK (SENTIMIENTO ROTO)
Y (AL CORAZON URBANO)100% ROCK DE IZTAPALAPA


E]-----------------------l---------------7--3-----------------I
B]-------5h6p5-----------l---------5h6--------6-5-- 6---------I
G]--7--------------7-----l-----7------------------------------I
D]-----------------------l------------------------------------I
A]-----------------------l------------------------------------I
E]-----------------------l------------------------------------I


E]-----10-10--------10-10-10-----8-8-8-----6-6-6----5-5-5----I
B]-----------------------------------------------------------I
G]-----------------------------------------------------------I
D]-----------------------------------------------------------I
A]-----------------------------------------------------------I
E]-----------------------------------------------------------I


E]-----3-5-3-----3-------------------------------------------I
B]------------6-----6---5-6-5-------5------------------------I
G]-------------------------------7----7-5-5--7-7-------------I
D]-----------------------------------------------------------I
A]-----------------------------------------------------------I
E]-----------------------------------------------------------I


      -AQUI SON VARIAS VECES ESCUCHENLA-

E]-------------------------------------------------------------I
B]----10--7-----10-7------10-7-----10-7-----10-7-----10-11-11--I
G]-7----------7--------7--------7--------7--------7------------I
D]-------------------------------------------------------------I
A]-------------------------------------------------------------I
E]-------------------------------------------------------------I


E]-------------------------------------------------------------I
B]------8-5----8-5-----8-5----8-5----8-5----8--10-10-----------I
G]--5--------5-------5------5------5------5--------------------I
D]-------------------------------------------------------------I
A]-------------------------------------------------------------I
E]-------------------------------------------------------------I


E]-----------------------------------------------------I
B]-----6-3---6-3-----6-3-----6-3-----6---8-8-----------I
G]--3------3-------3------3------3---------------------I
D]-----------------------------------------------------I
A]-----------------------------------------------------I
E]-----------------------------------------------------I


E]-----------------------------------------------------I
B]----6----5----3----2---------------------------------I


PARA LA NIÑA QUE ME INSPIRA EN TODO-ºººESTHEFANY-ROCHA-ººº TE AMO
                    ERES LO MEJOR DE MI VIDA

DUDAS /COMENTARIOS ºººenelcorazonnohaynada_@
Suggest correction
Give kudos to tab author, rate the tab!
1 2 3 4 5
comments
print report bad tab
guest
You may want to rate the tab now too:
select rating
Wanna post a correction for this tab? Suggest correction