Oops, an error
Loading. Please wait.

Sigue Doliendo Tu Amor Tab

25 views 1 this week
no commentswrite comment
1 2 3 4 5
3 more votes to show rating
add to favorites
×
Save as Personal and add changes to this tab that will be seen only by you. Learn more ›
×
You can save this tab as Personal to edit and correct it or add notes. All changes will be seen only by you. Learn more »
save as personal
new!
launch autoscroll
font size
0
reset
how to read this tab
guitar tuner
Autoscroll
slow
fast
+/-
esc
set tempo
stop
Una Rola chida de Interpuesto

INTRO

E---------I------------------------------
A---------I------------------------------
D---------I------------------------------
G---------I------------------------------
B-12-10-8-I-8-10---10-8-7--10-8---10-7-8-
e-10--8-7-I------7--------------7--------

E-------------------------------------------
A-------------------------------------------
D-------------------------------------------
G-------------------------------------------
B-8-10-----10---10-8-10-8-7-8-7-5-7-5-7-7/8-
e------8-7----7-----------------------------

 G               Bm
Si, sigue doliendo tu amor
        C
Porque no he podido
              D
Olvidarme de ti
 G               Bm
Si, sigue doliendo tu amor
        C
Porque aun sangra
         D
Mi corazon

Bm               C
Tengo tatuado tu nombre
      D
En mi brazo derecho
Bm               C
Tengo grabado tu nombre
         D
En mi telefono

 G               Bm
Si, sigue doliendo tu amor
        C
Porque no he podido
              D
Olvidarme de ti
 G               Bm
Si, sigue doliendo tu amor

        C
Porque aun sangra
         D
Mi corazon

SOLO

E-------------------I---------------
A-------------------I---------------
D-------------------I---------------
G-------------------I---------------
B-7/8-8-10---10-8-7-I-10-8---10-7-8-
e----------7--------I------7--------

E------------------------------------------
A------------------------------------------
D------------------------------------------
G------------------------------------------
B-8-10----10---10-8-10-8-7-8-7-5-7-5-7-7/8-
e-----8-7----7-----------------------------

 G               Bm
Si, sigue doliendo tu amor
        C
Porque no he podido
              D
Olvidarme de ti
 G               Bm
Si, sigue doliendo tu amor
        C
Porque aun sangra
         D
Mi corazon

Bm                 C
Pero un dia de fuiste y nunca
     D
Dijiste adios
Bm                   C
Y yo que pensaba que no
              D
Sobreviviria por tu amor

 G               Bm
Si, sigue doliendo tu amor
        C
Porque no he podido
              D
Olvidarme de ti

G               Bm
Si, sigue doliendo tu amor
        C
Porque aun sangra
         D
Mi corazon

 G               Bm
Si, sigue doliendo tu amor
        C
Porque no he podido
              D
Olvidarme de ti
 G               Bm
Si, sigue doliendo tu amor
        C
Porque aun sangra
         D
Mi corazon
Suggest correction
Give kudos to tab author, rate the tab!
1 2 3 4 5
comments
print report bad tab
guest
Wanna post a correction for this tab? Suggest correction