Oops, an error
Loading. Please wait.

Una Rola De Amor Tab

65 views 1 this week
no commentswrite comment
1 2 3 4 5
3 more votes to show rating
add to favorites
launch autoscroll
font size
0
reset
how to read this tab
guitar tuner
Autoscroll
slow
fast
+/-
esc
set tempo
stop
Help us to improve Ultimate-Guitar.com Take our survey!
×
Esto es la introducción:

E]-12-12s10--:-10s9---9s7-7-
B]-14-14s12--:-12s10-10s9-9-
G]-----------:--------------
D]-----------:--------------
A]-----------:--------------
E]-----------:--------------

E]-10-9-10-9-:---------------
B]-11-9-11-9-:----9-10-12-10-
G]-----------:-8h9-----------
D]-----------:---------------
A]-----------:---------------
E]-----------:---------------

E]-------12-12-12---12-(14)(12)-
B]-12s14---------14-------------
G]------------------------------
D]------------------------------
A]------------------------------
E]------------------------------

E]---------------10h12-10-
B]-14-12-(14)(12)---------
G]------------------------
D]------------------------
A]------------------------
E]------------------------

A                          C#m
Una rola de amor te voy a cantar

Bm                           E
Una rola de amor que te haga llorar

D                          C#m
Tu me iluminas más que el sol

D                            C#m
Tu pelo, tu boca los quiero besar

D                          C#m
Llevarte conmigo a la eternidad

Bm       D       E
Si amor si amor si

Y continua con los mismos acordes
Suggest correction
Give kudos to tab author, rate the tab!
1 2 3 4 5
comments
print report bad tab
guest
You may want to rate the tab now too:
select rating
Wanna post a correction for this tab? Suggest correction