Oops, an error
Loading. Please wait.

Vampiresa Tab

17 views 1 this week
no commentswrite comment
1 2 3 4 5
3 more votes to show rating
add to favorites
×
Save as Personal and add changes to this tab that will be seen only by you. Learn more ›
×
You can save this tab as Personal to edit and correct it or add notes. All changes will be seen only by you. Learn more »
save as personal
new!
launch autoscroll
font size
0
reset
how to read this tab
guitar tuner
Autoscroll
slow
fast
+/-
esc
set tempo
stop
Esta es la introduccion de la rola
se toca con pm (palm mute) y un poco de distorcion.

Intro:

E------------------------------------------------
B------------------------------------------------
G------------------------------------------------
D---5-6-5-6--5----3-5-3-5--3---------------------
A--6---6----6----4---4----4----------------------
E------------------------------------------------
                                   (F)    
E-----------------------------------1-------------
B-----------------------------------1-------------
G-----------------------------------2-------------
D---5-6-5-6--5----3-5-3-5-----------3-------------
A--6---6----6----4---4--------------3-------------
E---------------------------4-3-----1-------------

E-------------------------------------------------
B-------------------------------------------------
G---10-8--10-8----8--6--8--6----------------------
D---10-8--10-8----8--6--8--6----------------------  x2
A---8--6--8--6----6--4--6--4----------------------
E-------------------------------------------------

Conduceme a tu alcoba color satin......


Solo:
Esta es lo que se toca antes de la parte
rapida.

E---------7-------------7-------------------------
B--10-9-7---10-9-10-9-7---9-10-9-7-7--------------
G-------------------------------------------------

E---------7-------------7--------------------------
B--10-9-7---10-9-10-9-7----10*-9p-10-9-7-----------
G--------------------------------------------------

E--------5-----------5-----------------------------
B--8-7-5---8-7-8-7-5---8-7-8-7-5-------------------
G--------------------------------------------------

E--------------------------------------------------
B--5--6-6--8-8--6----------------------------------
G--6--6-6--8-8--6----------------------------------

E-------------------------------------------------- E
B--11-11-13-14-13-11-13-11-p13-11/9\--------------- S
G-------------------------------------------------- T
                                                    O
E--------------------------------------------------
B--11-13-14-13-11-13-11-p13-11/9\------------------ S
G-------------------------------------------------- E 
 
E-------------------------------------------------- T
B--11-13-14-13-11-13-9-11-9-8---------------------- O
G--------------------------------------------------  C
                                                    A
 
                                                    2
Despues de esto viene la parte rapida. esa luego se
las paso.
Suggest correction
Give kudos to tab author, rate the tab!
1 2 3 4 5
comments
print report bad tab
guest
Wanna post a correction for this tab? Suggest correction