Oops, an error
Loading. Please wait.

Vampireza tab

44 views 1 this week
no commentswrite comment
1 2 3 4 5
3 more votes to show rating
add to favorites
×
Save as Personal and add changes to this tab that will be seen only by you. Learn more ›
×
You can save this tab as Personal to edit and correct it or add notes. All changes will be seen only by you. Learn more »
launch autoscroll
font size
0
reset
how to read this tab
guitar tuner
edit
Autoscroll
slow
fast
+/-
esc
set tempo
stop
Titulo : Vampireza (version acustica)
Interprete : Interpuesto
Disco : Serenata rockanrolera, vol. I
Genero : Rock urbano
Transcriptor : Crhistian (takumi_kei)
Afinacion : Estándar
Acordes utilizados : Em D C


Esta transcripcion es para dos guitarras.
La guitarra 1 se encarga de todos los punteos,
y la guitarra 2 del acompañamiento con el rasgueo


[Intro]


e-------------------------|------------------------|
B-------------------------|------------------------|
G--------0--------0-------|-------0--------0-------|
D-----4--------4--------4-|----2--------2--------2-|
A--5--------5--------5----|-3--------3--------3----|
E-------------------------|------------------------|

e-------------------------|------------------------|
B-------------------------|------------------------|
G--------0--------0-------|-------0--------0-------|
D-----4--------4--------4-|----2--------2----------|
A--5--------5--------5----|-3--------3--------3--2-|
E-------------------------|------------------------|


 |-------------------|
 |-------------------|
.|-------------------|.
.|-------------------|.  X 2
 |--2-2-2-2-2-2-2-2--|
 |--0-0-0-0-0-0-0-0--|


    Em - D        Em - D        D - C          D - C

e-------------|--------------|-------------|--------------------|
B-------------|--------------|-------------|--------------------|
G--------2----|-------2------|--2----------|---2----------------|
D---2----0----|---2---0------|--0----2-----|---0----2-----------|
A---2---------|---2----------|-------3-----|--------3-----------|
E-------------|--------------|-------------|--------------------|


    Em - D        Em - D        D - C          D - C

e-------------|--------------|-------------|--------------------|
B-------------|--------------|-------------|--------------------|
G--------2----|-------2------|--2----------|---2----------------|
D---2----0----|---2---0------|--0----2-----|---0----2-----------|
A---2---------|---2----------|-------3-----|--------3--3---3--2-|
E-------------|--------------|-------------|--------------------|

e-------------------|
B-------------------|
G-------------------|
D-------------------| X 2
A--2-2-2-2-2-2-2-2--|
E--0-0-0-0-0-0-0-0--|


[versos]

Este arpegios se toca durante todos los versos

   Em                                  D
e-----------------------------------|----------------------------------|
B-----------------------------------|----------------------------------|
G------9-----9-----9-----9-----9----|------0-----0-----0-----0-----0---|
D----9-----9-----9-----9-----9------|----4-----4-----4-----4-----4-----|
A--7-----7-----7-----7-----7-----7--|--5-----5-----5-----5-----5-----5-|
E-----------------------------------|----------------------------------|


   C                                   D
e-----------------------------------|----------------------------------|
B-----------------------------------|----------------------------------|
G------0-----0-----0-----0-----0----|------7-----7-----7-----7-----7---|
D----2-----2-----2-----2-----2------|----7-----7-----7-----7-----7-----|
A--3-----3-----3-----3-----3-----3--|--5-----5-----5-----5-----5-----5-|
E-----------------------------------|----------------------------------|


Em
  Condúceme a tu alcoba color satín
     D
  Inventa un pretexto no podré resistir
 C
  Seria muy fácil olvidarme de ti
 D
  Me niego a ser tu maniquí

Em
  Tomando una copa en un triste lugar
 D
  Busco respuesta sin poder encontrar
 C
  Si no me quieres no debes bromear
 D
  Lleva mis sueños fuera de este lugar.


[coro]

El coro se toca exactamente igual que el intro (sin el arpegio).


 Em - D           Em - D
   Vampireza de la noche
 D - C        D - C
   Corazón de hiena
 Em - D            Em - D
   Devoraste mi conciencia
  D - C           D - C
   Vampireza cara de inocencia


 Em - D           Em - D
   Vampireza de la noche
 D - C        D - C
   Corazón de hiena
 Em - D            Em - D
   Devoraste mi conciencia
  D - C           D - C
   Vampireza cara de inocencia


Em (2 tiempos)


[versos]


Em
  La soledad ya no puedes resistir
D
  Y la tristeza se apodera de ti
C
  Y un gran vacío tu vas a encontrar
D
  Cuando me marche y ya no vuelva mas


Em
  Tú me atrapaste porque yo creí en ti
D
  Tu falsedad no la pude distinguir
C
  Y me pregunto no puedo comprender
D
  Como en tus redes yo pude caer


[coro]


 Em - D           Em - D
   Vampireza de la noche
 D - C        D - C
   Corazón de hiena
 Em - D            Em - D
   Devoraste mi conciencia
  D - C           D - C
   Vampireza cara de inocencia


 Em - D           Em - D
   Vampireza de la noche
 D - C        D - C
   Corazón de hiena
 Em - D            Em - D
   Devoraste mi conciencia
  D - C           D - C
   Vampireza cara de inocencia


[puente]

  Em

e--------------------------|----------------------------|
B----8--7-----10--8--7--8--|-----8---7-----10--8--7--8--|
G-9--------9---------------|--9---------9---------------|
D--------------------------|----------------------------|
A--------------------------|----------------------------|
E--------------------------|----------------------------|

  D

e--------------------------|----------------------------|
B----8--7-----10--8--7--8--|-----8---7-----10--8--7--8--|
G-7--------7---------------|--7---------7---------------|
D--------------------------|----------------------------|
A--------------------------|----------------------------|
E--------------------------|----------------------------|

  C
e--------------------------|----------------------------|
B----7-p5-----8--7--5--7---|------7-p5-----8--7--5--7---|
G-5--------7---------------|---5--------7---------------|
D--------------------------|----------------------------|
A--------------------------|----------------------------|
E--------------------------|----------------------------|

  D (este acorde igual que los anteriores dura dos tiempos)
e--------------------------|
B----5--4-----5-----4------|
G-4------------------------|
D--------------------------|
A--------------------------|
E--------------------------|


** lo que sigue hasta antes del solo se toca dos veces

  Em

e-2/3------------5----7----|---8---7---5---7----5h7p5---|
B--------------------------|----------------------------|
G--------------------------|----------------------------|
D--------------------------|----------------------------|
A--------------------------|----------------------------|
E--------------------------|----------------------------|

  D

e-3--------------5----7----|---8---7---5---7----5h7p5---|
B--------------------------|----------------------------|
G--------------------------|----------------------------|
D--------------------------|----------------------------|
A--------------------------|----------------------------|
E--------------------------|----------------------------|

  C

e-3--------------5----7----|---8---7---5---7----5h7p5---|
B--------------------------|----------------------------|
G--------------------------|----------------------------|
D--------------------------|----------------------------|
A--------------------------|----------------------------|
E--------------------------|----------------------------|

  D

e-3--------------5----3----|---2------------------------|
B--------------------------|----------------------------|
G--------------------------|----------------------------|
D--------------------------|----------------------------|
A--------------------------|----------------------------|
E--------------------------|----------------------------|


[solo]


   Em


e-7-8-10-8-7-7h8p75-5-7-5-|-------5-------5------------|
B--------------------------|----------------------8--8--|
G--------------------------|----------------------------|
D--------------------------|----------------------------|
A--------------------------|----------------------------|
E--------------------------|----------------------------|

  D

e--------------------------|----------------------------|
B--87---7--7--75---5--5--|--53-------3-------3-------|
G--------------------------|----------------------------|
D--------------------------|----------------------------|
A--------------------------|----------------------------|
E--------------------------|----------------------------|

  C

e--------------------------|---------------------------------|
B----3-h5------7-----8-----|-7--7h8p75--5--7--8--8/10--8--7-|
G--------------------------|---------------------------------|
D--------------------------|---------------------------------|
A--------------------------|---------------------------------|
E--------------------------|---------------------------------|

   D

e--------------------------|---------------------------------|
B--7h8p75-5--7--5--3--0---|--3h5p3--------5-----------------|
G--------------------------|---------------------------------|
D--------------------------|---------------------------------|
A--------------------------|---------------------------------|
E--------------------------|---------------------------------|

   Em

e--------2/3---3/5---5/7---|---7------10/12-----12/15----15--|
B--3/5---------------------|---------------------------------|
G--------------------------|---------------------------------|
D--------------------------|---------------------------------|
A--------------------------|---------------------------------|
E--------------------------|---------------------------------|

   D

e--15---12---12---15---12--|-----10----8----10----8----7-----|
B--------------------------|---------------------------------|
G--------------------------|---------------------------------|
D--------------------------|---------------------------------|
A--------------------------|---------------------------------|
E--------------------------|---------------------------------|

   C

e--7h8p75--5--7-10-8-7-5-7-|--7h8p75--5--7-10-8-7-5-7---|
B---------------------------|-----------------------------|
G---------------------------|-----------------------------|
D---------------------------|-----------------------------|
A---------------------------|-----------------------------|
E---------------------------|-----------------------------|

   D

e--8--7--5--5/7--5--/3--3--5-|-----------------------------|
B----------------------------|-5--3--3/5-------------------|
G----------------------------|-------------7--4--7--7/9----|
D----------------------------|-----------------------------|
A----------------------------|-----------------------------|
E----------------------------|-----------------------------|


[puente]


  Em

e----------------5----7----|---8---7---5---7----5h7p5---|
B--------------------------|----------------------------|
G--------------------------|----------------------------|
D--------------------------|----------------------------|
A--------------------------|----------------------------|
E--------------------------|----------------------------|

  D

e-3--------------5----7----|---8---7---5---7----5h7p5---|
B--------------------------|----------------------------|
G--------------------------|----------------------------|
D--------------------------|----------------------------|
A--------------------------|----------------------------|
E--------------------------|----------------------------|

  C

e-3--------------5----7----|---8---7---5---7----5h7p5---|
B--------------------------|----------------------------|
G--------------------------|----------------------------|
D--------------------------|----------------------------|
A--------------------------|----------------------------|
E--------------------------|----------------------------|

  D

e-3--------------5----3----|---2------------------------|
B--------------------------|----------------------------|
G--------------------------|----------------------------|
D--------------------------|----------------------------|
A--------------------------|----------------------------|
E--------------------------|----------------------------|


[outro]

   Em
e-----------------------------------|
B-----------------------------------|
G------9-----9-----9-----9-----9----|
D----9-----9-----9-----9-----9------|
A--7-----7-----7-----7-----7-----7--|
E-----------------------------------|


  D
e----------------------------------|
B----------------------------------|
G------0-----0-----0-----0-----0---|
D----4-----4-----4-----4-----4-----|
A--5-----5-----5-----5-----5-----5-|
E----------------------------------|


   C
e-----------------------------------|
B-----------------------------------|
G------0-----0-----0-----0-----0----|
D----2-----2-----2-----2-----2------|
A--3-----3-----3-----3-----3-----3--|
E-----------------------------------|

  D (1 tiempo)

e-----------2-----------|
B--------3-----3-----3--|
G-----2-----------2-----|
D--0--------------------|
A-----------------------|
E-----------------------|


                             Em
e--------------------------|-----------0--|
B--------------------------|---------0----|
G--------------------------|-------0------|
D--------------------------|-----2--------|
A--2--2--2--2--2--0--------|---2----------|
E--------------------3--2--|-0------------|

(en la ultima parte solo se toca el acorde Em,
lo demas no va con la rola pero se escucha bien xD)


Esta es "mi version"
espero que esté lo mas cerca posible a la original.
Cualquier duda, comentario o sugerencia
mandenme un correo a crisvale_16@
y si alguien va en la uam azcapo, ps ahi nos estamos viendo xD.

            
            
Suggest correction
Creating personal tab
Creating personal tab
You can edit any tab online and save it as your Personal.

You can edit, replace or remove any tab part or add personal notes – all changes will be seen only by you.

Personal tabs can be accessed anytime from any device, even offline.
Learn more »
Give kudos to tab author, rate the tab!
1 2 3 4 5
comments
print report bad tab
guest
Wanna post a correction for this tab? Suggest correction