Oops, an error
Loading. Please wait.

Yo Quisiera Que Sepas Tab

version 1
version 1

Whole song

29 views 1 this week
no commentswrite comment
1 2 3 4 5
3 more votes to show rating
add to favorites
×
Save as Personal and add changes to this tab that will be seen only by you. Learn more ›
×
You can save this tab as Personal to edit and correct it or add notes. All changes will be seen only by you. Learn more »
save as personal
new!
launch autoscroll
font size
0
reset
how to read this tab
guitar tuner
Autoscroll
slow
fast
+/-
esc
set tempo
stop
INTRO

e--3----3---3---3---3----7----7---7---7---7-----3----3---3---3---3-----
B--3----3---3---3---3----8----8---8---8---8-----5----5---5---5---5-----
G--4----4---4---4---4----9----9---9---9---9-----5----5---5---5---5-----
D--5----5---5---5---5----9----9---9---9---9-----5----5---5---5---5-----
A--5----5---5---5---5--------------------------------------------------
E----------------------------------------------------------------------

e--5----5---5---5---5---------------------------------------------------
B--7----7---7---7---7-----12b--10----------------13---12---10-----10----
G--7----7---7---7---7-------------12--11--12--9---------------12-----11-
D--7----7---7---7---7---------------------------------------------------
A-----------------------------------------------------------------------
E-----------------------------------------------------------------------

e-----------------------------------------------------------------------
B---12b---10------------------13--12--10----------10--------------------
G------------12--11--12--9-----------------12---------11----12p11h12----
D-----------------------------------------------------------------------
A-----------------------------------------------------------------------
E-----------------------------------------------------------------------

La letra y los acordes ya están publicados

SOLO

e----------------------------------5------------------------7----5----3-
B-------------------5--7--8-----------8--7----8-------------------------
G-------4---5---7-----------------------------------------7----5----4---
D---5h7-----------------------------------------------------------------
A-----------------------------------------------------------------------
E-----------------------------------------------------------------------

e---5-----3--2-----3--------------7---7---5----3---------5---3---2------
B---------------------------------8---8---7----5---------7---5---3------
G---5-----4--2-----4----------------------------------------------------
D-----------------------------------------------------------------------
A-----------------------------------------------------------------------
E-----------------------------------------------------------------------

e----0------------------3-----3------5-------3----2--------3------------
B----1------------------5-----5----------------------------3------------
G----------------------------------------------------------4------------
D----------------------------------------------------------5------------
A-----------------------------------------------------------------------
E-----------------------------------------------------------------------
Suggest correction
Give kudos to tab author, rate the tab!
1 2 3 4 5
comments
print report bad tab
guest
Wanna post a correction for this tab? Suggest correction