Oops, an error
Loading. Please wait.

Im Awake intro tab

version 1
version 1

Intro

Interactive

8,707 views 27 this week
3 commentsread comments
1 2 3 4 5
x 15
add to favorites
×
Save as Personal and add changes to this tab that will be seen only by you. Learn more ›
×
You can save this tab as Personal to edit and correct it or add notes. All changes will be seen only by you. Learn more »
launch autoscroll
font size
0
reset
how to read this tab
guitar tuner
edit
Autoscroll
slow
fast
+/-
esc
set tempo
stop
Author
Difficulty
[Intro/main riff]

e|--------------------------------|--------------------------------|
B|--------------------------------|--------------------------------|
G|--------------------------------|--------------------------------|
D|--------0h7---------------------|----0h4----------~~~0~~~~~~~~~~~|
A|--------------------------------|----------------7~~~~~~~7~~~~~~~|
E|7-7-7-7-----7-7-7-7-7---7-7-7\3-|3-3-----3-3-5~~~~~~~~~~~~~~~5~~~|

e|--------------------------------|--------------------------------|
B|--------------------------------|--------------------------------|
G|--------------------------------|----0---------------------------|
D|--------0h7---------2-------4---|--------4-----------------------|
A|--------------------------------|------------7-------------0h5h7-|
E|7-7-7-7-----0-0-0-0-2-------3---|------------5-------0h2h3-------|

e|--------------------------------|--------------------------------|
B|--------------------------------|------------------------7*------|
G|--------------------------------|--------------------5*------7*--|
D|--------0h7---------------------|----0h4---------5*--------------|
A|--------------------------------|------------5*------------------|
E|7-7-7-7-----7-7-7-7-7---7-7-7\3-|3-3-----3-3---------------------|

e|--------------------------------|--------------------------------|
B|--------------------------------|--------------------------------|
G|--------------------------------|--------------------------------|
D|----------------------------4~~~|~~~~------------0h4-------------|
A|--------------------------------|----------0h2h5-----------0h4h7-|
E|0-0-0-0-0---0-0-0-0-0h2-0-0-3~~~|~~~~0h2h3-----------0h3h5-------|



************************************

| h  Hammer-on
| \  Slide down
| ~  Vibrato 

************************************
Suggest correction
Creating personal tab
Creating personal tab
You can edit any tab online and save it as your Personal.

You can edit, replace or remove any tab part or add personal notes – all changes will be seen only by you.

Personal tabs can be accessed anytime from any device, even offline.
Learn more »
comments
print report bad tab
3 comments total.
0 reply
owen556 111 Mar 16, 2016 06:10 PM

This song has been stuck in my head ever since I first listened through the whole album, a tab pro of this song would be absolutely amazing and I need that in my life right now.

0 reply
Boothis666 10 Mar 20, 2016 07:57 AM

e|--------------------------------|--------------------------------|
B|--------------------------------|--------------------------------|
G|--------------------------------|--------------------------------|
D|--------0h7---------------------|----0h4----------~~~0~~~~~~~~~~~|
A|--------------------------------|----------------7~~~~~~~7~~~~~~~|
E|7-7-7-7-----7-7-7-7-7---7-7\5\3-|3-3-----3-3-5~~~~~~~~~~~~~~~5~~~|

I believe is how it should go! Been listening to this on repeat for days

guest
You may want to rate the tab now too:
select rating
Wanna post a correction for this tab? Suggest correction