Oops, an error
Loading. Please wait.

Cueca De La C.u.t. Tab

47 views 3 this week
no commentswrite comment
1 2 3 4 5
3 more votes to show rating
add to favorites
launch autoscroll
font size
0
reset
how to read this tab
guitar tuner
Autoscroll
slow
fast
+/-
esc
set tempo
stop
 intro: SOL

 E/-3-3---------------------------------3-3--
 A/-----0-2-3-2-3--------------3-2-0-h2------
 D/---------------0-0--0-0-2-0---------------
 G/------------------------------------------
 B/------------------------------------------  X2
 E/------------------------------------------

 E/-3-3------------------
 A/-----0-2-3-2-3--------
 D/---------------0------
 G/----------------------
 B/----------------------
 E/----------------------

 00:28
 E/-----------------3---
 A/-----------3-2-0-----
 D/-0-2-3-2-0-----------
 G/---------------------
 B/---------------------
 E/---------------------
Suggest correction
Give kudos to tab author, rate the tab!
1 2 3 4 5
comments
print report bad tab
guest
You may want to rate the tab now too:
select rating
Wanna post a correction for this tab? Suggest correction