Oops, an error
Loading. Please wait.

Danza Mediterranea Tab

693 views 1 this week
no commentswrite comment
1 2 3 4 5
please rate
add to favorites
launch autoscroll
font size
0
reset
how to read this tab
guitar tuner
Tab Pro tools
  • play this tab
  • loop segment
  • change instrument
  • show fretboard
  • metronome
×
Best way to learn
"Danza Mediterranea"
Autoscroll
slow
fast
+/-
esc
set tempo
stop
Difficulty
intermediate
Danza Mediterranea - Inti Illimani Historico ( por :Benjamin Epuyao)

Acordes esenciales:

 1era parte 

 Em  F#m7 B7  Em
E-0---2---2---0---l
B-0---2---4---0---l
G-0---2---2---0---l x2
D-2---2---4---2---l
A-2---4---2---2---l
E-0---2-------0---l
 
 2da parte
 
 Am   D   G   c  F#m7 B7  Em
E-0---2---3---0---2---2---0---------l
B-1---3---3---1---2---4---0---------l
G-2---2---0---0---2---2---0---------l X2
D-2---0---0---2---2---4---2---------l
A-0-------2---3---4---2---2---------l
E---------3---3---2-------0---2--3--l



TAB :

1era Parte

   
E--3-3-2-0-----0-2-3-3-2-3-----0-3-2-2-0-2--5-3-2-3-2-0-----------------l
B------------3-----3---------3-----2--------------0---------------------l
G-----------------------------------------------------------------------l X2
D--2-------2-------2-------2-------2-------2------2---------------------l
A-------------------------------------------------------2---------------l
E---------------------------------------------------------0----0--2--4--l


2Da parte

E-----8-8-7-5l---5-8-l---7-7---7-l----7-l----5-5-----l--8-7----7-5--l-----------------l
B----5 ------l--8----l--0---10---l---8--l---5----8-7-l------10-----8l-----------------l
G---5--------l-------l-0---------l--9---l--5---------l--------------l-----------------l
D------------l-0-----l-----------l------l------------l--------------l-----------------l
A--0---------l-------l-----------l------l-0----------l--------------l-----------------l
E------------l-------l-----------l-8----l------------l-7-------0----l-7-0-2-4----7-0--l 

E-----8-8-7-5l---5-8-l---7-7---7-l----7-l----5-5-----l------------------l
B----5 ------l--8----l--0---10---l---8--l---5----8-7-l--10-8-7--8-7-----l
G---5--------l-------l-0---------l--9---l--5---------l--------------9---l
D------------l-0-----l-----------l------l------------l------------------l
A--0---------l-------l-----------l------l-0----------l------------------l
E------------l-------l-----------l-8----l------------l-7-------0--------l


3ra parte

E--12--8----5----7-7-8-10---7-----8-5---------------------------------7--l
B--10--10---7---0-----------6----5----7-----9-9-7-------9-9-7---------8--l
G--11----------0------------7---5-----8----9------9----9------9----9--9--l
D--10-----0----------------6----------9---9-----------9-----------9---9--l
A--0------------------------------------------------------------------7--l
E------------------------------5------7--0-----------0-----------0----0--l

............................................
visiten mi canal en youtube y encontraran mi video cover de esta cancion:
http://www.youtube.com/user/0602BENJA?feature=mhee 
............................................
agregen al face cualquer duda :) http://www.facebook.com/Don.benyi
comments
We did not receive enough feedback on this tab! Please rate:
print report bad tab
1 2 3 4 5
I want to post or [tab]
guest
You may want to rate the tab now too:
select rating
Please do not post tabs as comments. Select "correction" instead!