Oops, an error
Loading. Please wait.

Danza Negra Chords

91 views 1 this week
no commentswrite comment
1 2 3 4 5
3 more votes to show rating
add to favorites
launch autoscroll
font size
0
reset
transpose
0
reset
simplify chords
display chords
guitar tuner
×
Best way to learn
"Danza Negra"
Autoscroll
slow
fast
+/-
esc
set tempo
stop
Intro: F-Gm-C-D7-Gm

  F                                 Gm
E|---------------------------------|-----------------------|
B|---------------------------------|-----------------------|
G|---------------------------------|-----------------------|
D|-----------------3---1---0-------|-------------3---5-----|
A|---------0---3---------------3---|-1---3---5-------------|
E|-1----3--------------------------|-----------------------|

  C                D                Gm
E|---------------------------------|-----------------------|
B|---------------------------------|-----------------------|
G|---------------------------------|-----------------------|
D|-------------2---0---------------|-----------------------|
A|---------3-----------3---1---0---|---------1---0---------|
E|-0----3--------------------------|-3---1-----------3-----|

              F
A)/:Calabó y bambú
            Gm
Bambú y calabó
            C
Calabó y bambú
   D7       Gm
Bambú y calabó:/

  Gm                               F
B)El Gran Cocoroco dice: tu-cu-tú (tu-cu - tu-cu-tú)
    D7                          Gm
La Gran Cocoroca dice: to-co-tó  [to-co-tó]
Gm                                 C
/:Es el sol de hierro que arde en Tombuctú
 D7                     Gm
Es la danza negra de Fernando Poo:/
Gm                                       F
El cerdo en el fango gruñe: pru-pru-prú (pru-pru - pru-pru-prú)
    D7                                   Gm
El sapo en la charca sueña: cro-cro-cró (cro-cro-cró)

A)/:Calabó y bambú
Bambú y calabó
Calabó y bambú
Bambú y calabó:/

  F                          Gm
C)Rompen los junjunes en furiosa u (u)
F                          Gm
Los gongos trepidan con profunda o (o)
F                         Bb
Es la raza negra que ondulando va
Cm                     D7
en el ritmo gordo de mariyandá
F                       Gm
Llegan los botucos a la fiesta ya
F                       Gm
Danza que te danza la negra se da

A)/:Calabó y bambú
Bambú y calabó
Calabó y bambú
Bambú y calabó:/

   Gm                               F
B2)El Gran Cocoroco dice: tu-cu-tú (tu-cu - tu-cu-tú)
    D7                          Gm
La Gran Cocoroca dice: to-co-tó  [to-co-tó]
Gm                         C
Pasan tierras rojas, islas de betún:
D7                     Gm
Haití, Martinica, Congo, Camerún;
Gm                     C
las papiamentosas antillas del ron
D7                     Gm
y las patualesas islas del volcán,
                F
que en el grave son
             Gm
del canto se dan
            C
Calabó y bambú
D7          Gm
Bambú y calabó

A)Calabó y bambú  (En vivo no tocan esta estrofa)
Bambú y calabó       (sólo aparece en el disco)
Calabó y bambú
Bambú y calabó

Interludio:
D7
Gm
D7
Gm
/:F-Gm
C-D7-Gm:/

  D7
D)Es el sol de hierro que arde en Tombuctú
Gm
Es la danza negra de Fernando Poo
D7
El alma africana que vibrando está
Gm
en el ritmo gordo del mariyandá

A)/:Calabó y bambú
Bambú y calabó
Calabó y bambú
Bambú y calabó:/

Outro: /:F-Gm-C-D7-Gm:/
Suggest correction
Give kudos to tab author, rate the tab!
1 2 3 4 5
comments
print report bad tab
guest
You may want to rate the tab now too:
select rating
Wanna post a correction for this tab? Suggest correction