Oops, an error
Loading. Please wait.

El Arado Tab

206 views 1 this week
no commentswrite comment
1 2 3 4 5
3 more votes to show rating
add to favorites
×
Save as Personal and add changes to this tab that will be seen only by you. Learn more ›
×
You can save this tab as Personal to edit and correct it or add notes. All changes will be seen only by you. Learn more »
save as personal
new!
launch autoscroll
font size
0
reset
how to read this tab
guitar tuner
Autoscroll
slow
fast
+/-
esc
set tempo
stop
Intro: Em

                       Em
---------------------------3----|
-------------------------0------|
--------------------------------|
-----------------------2--------|
--------------------------------|
--------------------------------|     
Aprieto firme mi mano
                         G
y hundo el arado en la tierra
     D7                Am
hace años que llevo en ella

------------------------------|
------------------------------|
--4--2--0---------------------|
-----------4--2--0------------|
--------------------3/7--~7---|
------------------------------|
¿cómo no estar agotado?

 Em     D7       Em
--3------2--------0---|
--5------1--------0---|
--4------2--------0---|
--2------0--------2---|
------------------2---|
------------------0---|
Aprieto firme mi mano

 Em       Em/D7         G
----0--------2----------3--|
----0--------1----------3--|
----0--------2----------0--|
--2--------0------------0--|
------------------------2--|
------------------------3--|
y hundo el arado en la tierra
     D7                Am
hace años que llevo en ella

------------------------------|
------------------------------|
--4--2--0---------------------|
-----------4--2--0------------|
--------------------3/7--~7---|
------------------------------|
¿cómo no estar agotado?


Interludio:

-------0-----------0----------0-----------0-----| 
-----0---0-------0---0------0---0-------0---0---| 
---5-------5---5------5---4-------4---4-------4-| 
-7-----------7----------5-----------5-----------| 
------------------------------------------------| 
------------------------------------------------| 

------0-----------0-----------0-----------0-----|
----0---0-------0---0-------0---0-------0---0---|
--2-------2---2-------2---0-------0---0-------0-|
4-----------4-----------2-----------0-----------|
------------------------------------------------|
------------------------------------------------|

-------0-----------0----------0-----------0-----| 
-----0---0-------0---0------0---0-------0---0---| 
---5-------5---5------5---4-------4---4-------4-| 
-7-----------7----------5-----------5-----------| 
------------------------------------------------| 
------------------------------------------------| 

------0-----------0-----------0-----|
----0---0-------0---0-------0---0---|
--2-------2---2-------2---0-------0-|
4-----------4-----------2-----------|
------------------------------------|
------------------------------------|
                                   
----------------------------------|
----------------------------------|
---0---0---0---0---0---0----------|
-2---0----------------------------|
---------3---2---0----------------|
---------------------3---2/7--~7--| Fin Interludio


  (Em/C     Em   Em/C   Em ......)
-------------0-------------0---------------|
-------------0-------------0---------------|
-------0-----0-------0-----0---------------|
-----2-------2-----2-------2---------------|
---3------2--2---3------2--2-......--------|
-------------0-------------0---------------|


Em     Em/C Em   Em/C    Em
Vuelan mariposas, cantan grillos,
Em/C    Em    Em/C Em
la piel se me pone negra
Em/C Em    (Em/C-Em //) Em/C-Em Em/C-B7/F# (B) B7/F#
y el sol bri.......lla, brilla  y brilla,
[B]   B7/F# [B]   B7/F#                       [B] = sólo nota de bajo
el sudor me hace surcos,
(B)     B7/F# (B)   B7/F#
yo hago surcos a la tierra
(B)    Em Em/C
sin parar.
Em     Em/C Em   Em/C    Em
Vuelan mariposas, cantan grillos,
Em/C    Em    Em/C Em
la piel se me pone negra
Em/C Em    (Em/C-Em //) Em/C-Em Em/C-B7/F# (B) B7/F#
y el sol bri.......lla, brilla  y brilla,
[B]   B7/F# [B]   B7/F#                       [B] = sólo nota de bajo
el sudor me hace surcos,
(B)     B7/F# (B)   B7/F#
yo hago surcos a la tierra
(B)    Em 
sin parar.


Interludio 2:

--------0-----------0-----------0---------------0-|
------0---0-------0---0-------0---0-----------0---|
----5-------5---4-------4---2-------2-------0-----|
--7-----------5-----------4---------------2-------|
----------------------------------------2---------|
--------------------------------------0-----------| Fin Interludio 2

                       Em
----------------------------3----|
--------------------------0------|
---------------------------------|
------------------------2--------|
---------------------------------|
---------------------------------|                       
Afirmo bien la esperanza
                             G
cuando pienso en la otra estrella;
 D7                     Am
nunca es tarde, me dice ella,

------------------------------|
------------------------------|
-4--2-0-----------------------|
----------4--2--0-------------|
-------------------3/7--~7----|
------------------------------|
LA paloma volará.

 Em     D7       Em
--3------2----------0---|
--5------1----------0---|
--4------2----------0---|
--2------0----------2---|
--------------------2---|
--------------------0---|
Afirmo bien la esperanza

 Em               Em/D7       G
----0---------------2---------3--|
----0---------------1---------3--|
----0---------------2---------0--|
--2---------------0-----------0--|
------------------------------2--|
------------------------------3--|
cuando pienso en la otra estrella
 D7                    Am
nunca es tarde me dice ella


------------------------------|
------------------------------|
--4--2--0---------------------|
-----------4--2--0------------|
--------------------3/7--~7---|
------------------------------|
 LA paloma volará


Interludio...


Em     Em/C Em   Em/C    Em
Vuelan mariposas, cantan grillos,
Em/C    Em    Em/C Em
la piel se me pone negra
Em/C Em    (Em/C-Em //) Em/C-Em Em/C-B7/F# (B) B7/F#
y el sol bri.......lla, brilla  y brilla,
(B)   B7/F# (B)   B7/F#                      
el sudor me hace surcos,
(B)     B7/F# (B)   B7/F#
yo hago surcos a la tierra
(B)    Em Em/C
sin parar.
Em     Em/C Em   Em/C    Em
Vuelan mariposas, cantan grillos,
Em/C    Em    Em/C Em
la piel se me pone negra
Em/C Em    (Em/C-Em //) Em/C-Em Em/C-B7/F# (B) B7/F#
y el sol bri.......lla, brilla  y brilla,
(B)     B7/F#   (B)   B7/F#                       
y en las tardes cuando vuelvo
(B)   B7/F# (B)   B7/F#
en el cielo apareciendo 
(B)    Em (rasgueando) 
una estrella.
Em
Nunca es tarde, me dice ella,
Em
la paloma volará, volará,
Em     B7/F#
y volará
B7/F#
como el yugo de apretado
B7/F#
tengo el puño esperanzado
B7/F#
porque todo
      Em
cambiará.
                                     Em
--------------------------------------0---|
--------------------------------------0---|
---0---0---0---0---0---0--------------0---|
-2---0--------------------------------2---|
---------3---2---0--------------------2---|
---------------------3---2/7--~7------0---|
Suggest correction
Give kudos to tab author, rate the tab!
1 2 3 4 5
comments
print report bad tab
guest
Wanna post a correction for this tab? Suggest correction