Oops, an error
Loading. Please wait.

El Canelazo Tab

63 views 1 this week
no commentswrite comment
1 2 3 4 5
3 more votes to show rating
add to favorites
launch autoscroll
font size
0
reset
how to read this tab
guitar tuner
Autoscroll
slow
fast
+/-
esc
set tempo
stop
Help us to improve Ultimate-Guitar.com Take our survey!
×
Intro:
e-7/12-12-12-12-12-12-12-12-15-12-10-10-8--8--7-8-------8-10-8--8--8--10-|
B-8/13-13-13-13-13-13-13-13-13-13-12-12-10-10-8-10---10---10-10-10-10-10-|
G--------------------------------------------------9------9--9--9--9--9--|
D------------------------------------------------------------------------|
A------------------------------------------------------------------------|
E------------------------------------------------------------------------|

e------10-8--------7-7-7-7-7---7---7---7---7--|
B---10------10---8-----8-8-8---8---8---8---8--|
G-9------------9-------9-9-9-9---9---9---9----|
D---------------------------------------------|
A---------------------------------------------|
E---------------------------------------------|

A)      DO
Abra la puerta, señora,
           LAm
sírvame un canelacito,
deme unito, deme otrito,
         MIm
hasta quedar chumadito.

Abra la puerta por favor,
quiero olvidar lo que es dolor
que estoy chumado ¡ay, qué caray!
ya voy entrando en humor.

B)      MI7
Toda la noche pasaré,
junto a mi longa con amor
         LAm
aunque mañana lloraré
mi soledad y mi amargor
que estoy chumado ¡ay, qué caray!
         MIm
ya voy entrando en humor.
Suggest correction
Give kudos to tab author, rate the tab!
1 2 3 4 5
comments
print report bad tab
guest
You may want to rate the tab now too:
select rating
Wanna post a correction for this tab? Suggest correction