Oops, an error
Loading. Please wait.

El Mercado De Testaccio Tab

version 2
version 2

Whole song

137 views 1 this week
no commentswrite comment
1 2 3 4 5
3 more votes to show rating
add to favorites
launch autoscroll
font size
0
reset
how to read this tab
guitar tuner
×
Best way to learn
"El Mercado De Testaccio"
Autoscroll
slow
fast
+/-
esc
set tempo
stop
para charango (la ultima parte no esta perfecta)


E|---------------------------------------------------------------------
 A|--2--2--0--2--0--2--0-----2--2--0--2--0--2--2--3--5--5--5--2--5--0--
 E|-----------------------3--------------------------------------------
 C|--------------------------------------------------------------------
 G|--------------------------------------------------------------------

-----------------------------------------------------------------------
--5--2--5--0--5--2----2--2--0--2--0--2--0-----2--2--0--2--2--3--5--5--5
-------------------------------------------3---------------------------
-----------------------------------------------------------------------
-----------------------------------------------------------------------

--------------0---------------------------0--0-----0-----0--------0--3-
--2--5--0--5-----5--3--2--3--2--0---------------5-----5-----3--2-------
-----------------------------------3-----------------------------------
-----------------------------------------------------------------------
-----------------------------------------------------------------------

-2--0------------------------------------------0--0-----0-----0--------
--------5--3--2--3--2--1--2--3--2--1--2--------------5-----5-----3--2--
-----------------------------------------3--0--------------------------
-----------------------------------------------------------------------
-----------------------------------------------------------------------

0--3--2--0-------------------------------------------------------------
------------5--3--2--3--2--1--2--3--2--1--2--3--2--1--2--3--2--5--3--2-
-----------------------------------------------------------------------
-----------------------------------------------------------------------
-----------------------------------------------------------------------

-----------------------------------------------------------------------
-0--------0--0-----0-----0--3--2--0--------0-----0-----0--3--2--0------
----3--4--------4-----0--------------3--4-----4-----0--------------3--3
-----------------------------------------------------------------------
-----------------------------------------------------------------------

---------------------------------------------------------------------
-----------------------------------------------------------------0--2
--3--2--3--2--3--2--0--3--3--2--3--2--3--2--0--3--3--2--3--2--3------
---------------------------------------------------------------------
---------------------------------------------------------------------

X2

2nda. Parte

--------------0--------3
-----0--2--5-----5--2---
--3----------------------       X16
------------------------
--------------------------
Suggest correction
Give kudos to tab author, rate the tab!
1 2 3 4 5
comments
print report bad tab
guest
You may want to rate the tab now too:
select rating
Wanna post a correction for this tab? Suggest correction