Oops, an error
Loading. Please wait.

El Surco Tab

version 2
version 2

Whole song

122 views 1 this week
no commentswrite comment
1 2 3 4 5
2 more votes to show rating
add to favorites
launch autoscroll
font size
0
reset
how to read this tab
guitar tuner
×
Best way to learn
"El Surco"
Autoscroll
slow
fast
+/-
esc
set tempo
stop
-
E||-----------------|---------2-------|-----0-------------|
B||-----------------|----2---------4--|-----------0-------|
G||-----------------|----2------------|-------------------|
D||-----------------|-----------------|-------------------|
A||------------0--X-|----2------2-----|--------------0--X-|
E||--0----4-------X-|-----------------|--0-----4--------X-|


---------2----4--|-----------------|----------2-------|
----2---------5--|-----------------|----2----------4--|
----2------------|-----------------|----2-------------|
-----------------|-----------------|------------------|
----2------------|------------0--X-|----2-------------|
-----------------|--0----4-------X-|------------------|


-----0-------------|-----------------| (sigue igual)
-----------0-------|----2----4----5--|
-------------------|----2---------4--|
-------------------|-----------------|
--------------0--X-|----2------------|
--0-----4--------X-|-----------------|


-----------2-----|-----------------|--6---8---9----------|
---2-------------|---5-------------|--7---9---9----------|
---2-------------|---6-------------|---------------------|
-----------------|-----------6--X--|---------------------|
---2-------------|---4----7-----X--|--6------------11--X-|
-----------------|-----------------|------8---9--12----X-|

               ...A malhaya la siembra se echó a perder...


---5------4------|-----2--0----------|----6--8--9---------|
---7------5------|-----4-------5-----|----7--9--9---------|
---6------6------|-------------6-----|--------------------|
------X----------|-X---------------6-|-X------------------|
---6--X---7--6-4-|-X---3-------4-7---|-X--6------------11-|
-----------------|-------------------|-------8--9?--12----|


------2----------|--0--------------|-------2----------|
--2--------4-----|--------0--------|---2--------------|
--2--------------|-----------------|---2--------------|
-----------------|--------------X--|------------X-----|
--2-----2--------|-----------0--X--|---2--------X-----|
--------------0--|-----4-----------|------------------|


-----------------|--------4----2---|-----0-------------|
---5-------------|---4-------2-----|--0--------2--4?-5-|
---6-------------|-----------------|-----------2-----4-|
----------6---X--|-----------------|-------X-----------|
---4---7------X--|---2-------0-----|-------X---2-------|
-----------------|-----------------|--4----------------|

X
X golpe suave en los bajos                royalchapel@
Suggest correction
Give kudos to tab author, rate the tab!
1 2 3 4 5
comments
print report bad tab
guest
You may want to rate the tab now too:
select rating
Wanna post a correction for this tab? Suggest correction