Oops, an error
Loading. Please wait.

En Libertad Tab

71 views 1 this week
no commentswrite comment
1 2 3 4 5
3 more votes to show rating
add to favorites
launch autoscroll
font size
0
reset
how to read this tab
guitar tuner
×
Best way to learn
"En Libertad"
Autoscroll
slow
fast
+/-
esc
set tempo
stop
Versión correspondiente al disco Nº 2 de la recopilación
"Antología en Vivo" de Inri-Illimani. No es igual a la versión
de estudio.

Intro:

E|--8----7---5---7---5---3---5---3---1---3---2---0---|
B|--9----8---5---8---5---3---5---3---1---3---2---0---|
G|--10---9---5---9---5---4---5---4---2---2---2---0---|  ( Se repite 1
D|---------------------------------------------------|    vez más )
A|---------------------------------------------------|
E|---------------------------------------------------|

---2---7---0---5---5---3---5---3---1---3---2---0---3---2---0---7---7---|
---2---8---0---5---5---3---5---3---1---3---2---0---3---2---0---7---8---|
---2---9---0---5---5---4---5---4---2---3---2---0---4---2---0---8---9---|
---------------------------------------------------------------7---9---|
---------------------------------------------------------------9---7---|
---------------------------------------------------------------7---7---|


                              MIm* - SI7* - MIm
A) Quisiera tener alas para volar
 MI7*   LAm*
para volar
                            MIm*
quisiera tener alas para volar
                SI7*        MIm* - SI7* - MIm*
quisiera tener alas para volar
 MI7*   LAm*
para volar
                               MIm*
cruzar por el espacio en libertad
                 SI7*          MIm*
cruzar por el espacio en libertad.


   SI7*     MIm*            MI7*             LAm*
B) En libertad como los pajarillos, en libertad
                 MIm*    SI7*   MIm*
que nadie me pregunte a dónde vas.


A) Camino sin fronteras quisiera ser
quisiera ser
camino sin fronteras quisiera ser
camino sin fronteras quisiera ser
quisiera ser
sin prisa ni motivos para volver
sin prisa ni motivos para volver.

B) En libertad como los pajarillos, en libertad
que nadie me pregunte a dónde vas.

( Se alarga ) MIm* - SI7* - MIm* - SI7* -
MIm* - SI7* - MIm* - SI7* - MIm*

A) Quisiera ser espuma & ola en el mar
ola en el mar,
quisiera ser espuma & ola en el mar
quisiera ser espuma & ola en el mar
ola en el mar
que llega hasta la orilla y vuelve atrás
que llega hasta la orilla y vuelve atrás.

B) En libertad como los pajarillos, en libertad
que nadie me pregunte a dónde vas.

Interludio:

E|------------------------|
B|------------------------|
G|------------------------|
D|------------------------|
A|-----7--5--3--2--0---0--|
E|--0----------------4----|


-----------------------------------------------|
-----------------------------------------------|
-----------------------------------------------|
-----------------------------------------------|
-----0-----0--2--3--2--6--3--2--0--------------|
--4-----4--------------------------2--3--2--0--|


--------------2--3--2--5--3--2-----------|
--0--5--4--5--------------------5--4--5--|
-----------------------------------------|
-----------------------------------------|
-----------------------------------------|
-----------------------------------------|

MIm* - SI7* - MIm* - SI7* - MIm*

A) Un beso cada día al despertar
al despertar,
un beso cada día al despertar
un beso cada día al despertar
al despertar
de labios que te dejen en libertad
de labios que te dejen en libertad.

B) En libertad como los pajarillos, en libertad
                         SI7*    MIm*
que nadie me pregunte a dónde vas.


Nota: *Hay que escuchar bien el tema para ver
       los tiempos en la Intro.


Acordes:

     MIm*  SI7*  MI7*  LAm*
E|----7-----7-----7-----5------|
B|----8-----7-----9-----5------|
G|----9-----8-----7-----5------|
D|----9-----9-----9-----7------|
A|----7-----9-----7-----7------|
E|----7-----7-----7-----5------|
Suggest correction
Give kudos to tab author, rate the tab!
1 2 3 4 5
comments
print report bad tab
guest
You may want to rate the tab now too:
select rating
Wanna post a correction for this tab? Suggest correction