Oops, an error
Loading. Please wait.

La Guitarrera Que Toca Tab

30 views 1 this week
no commentswrite comment
1 2 3 4 5
3 more votes to show rating
add to favorites
launch autoscroll
font size
0
reset
how to read this tab
guitar tuner
×
Best way to learn
"La Guitarrera Que Toca"
Autoscroll
slow
fast
+/-
esc
set tempo
stop
INTRODUCCION

E-0--------0----/---------------/-0--------------/-0--/-0-5-4-
B-----4------4--/---2-------2---/-----4----5---4-/-2--/-2-----
G---4---4-------/-4-------4---2-/---4---4--------/-2--/-2-6-4-
D---------------/-------2-------/----------------/-2--/-2-----
A---------------/-----0---------/----------4---2-/-0--/-0-----
E---------------/---------------/----------------/-0--/-0-----

INTERLUDIO
E---------9-7-------------------//--------9-7----------------/
B---7--10-----10-9-10---7-------//---7-10-----10-9-10---6--7-
G-7-------------------7---9---6-//-7------------------8------
D-------------------------------//---------------------------/
A-------------------------------//---------------------------/
E-------------------------------//---------------------------/

E--14-12-10-12-10-12-14-14-12-10-14-/-10-9-7-9-5-4-5-7-7-5-4-2---
B-----------------------------------/----------------------------
G--14-13-11-13-11-13-14-14-13-11-14-/-11-9-7-9-6-4-6-7-7-6-4-2---
D-----------------------------------/----------------------------
A-----------------------------------/----------------------------
E----------------------------------------------------------------
Suggest correction
Give kudos to tab author, rate the tab!
1 2 3 4 5
comments
print report bad tab
guest
You may want to rate the tab now too:
select rating
Wanna post a correction for this tab? Suggest correction